  0
SECTION
  2
HEADER
  9
$ACADVER
  1
AC1015
  9
$ACADMAINTVER
 70
     6
  9
$DWGCODEPAGE
  3
ANSI_1254
  9
$INSBASE
 10
0.0
 20
0.0
 30
0.0
  9
$EXTMIN
 10
0.0
 20
0.0
 30
0.0
  9
$EXTMAX
 10
279.4
 20
215.9
 30
0.0
  9
$LIMMIN
 10
0.0
 20
0.0
  9
$LIMMAX
 10
279.4
 20
215.9
  9
$ORTHOMODE
 70
     0
  9
$REGENMODE
 70
     1
  9
$FILLMODE
 70
     1
  9
$QTEXTMODE
 70
     0
  9
$MIRRTEXT
 70
     1
  9
$LTSCALE
 40
1.0
  9
$ATTMODE
 70
     1
  9
$TEXTSIZE
 40
3.5
  9
$TRACEWID
 40
1.0
  9
$TEXTSTYLE
  7
Standard
  9
$CLAYER
  8
0
  9
$CELTYPE
  6
ByLayer
  9
$CECOLOR
 62
   256
  9
$CELTSCALE
 40
1.0
  9
$DISPSILH
 70
     0
  9
$DIMSCALE
 40
1.0
  9
$DIMASZ
 40
3.5
  9
$DIMEXO
 40
1.0
  9
$DIMDLI
 40
3.75
  9
$DIMRND
 40
0.0
  9
$DIMDLE
 40
0.0
  9
$DIMEXE
 40
1.0
  9
$DIMTP
 40
0.0
  9
$DIMTM
 40
0.0
  9
$DIMTXT
 40
3.5
  9
$DIMCEN
 40
2.5
  9
$DIMTSZ
 40
0.0
  9
$DIMTOL
 70
     0
  9
$DIMLIM
 70
     0
  9
$DIMTIH
 70
     1
  9
$DIMTOH
 70
     1
  9
$DIMSE1
 70
     0
  9
$DIMSE2
 70
     0
  9
$DIMTAD
 70
     1
  9
$DIMZIN
 70
     0
  9
$DIMBLK
  1

  9
$DIMASO
 70
     1
  9
$DIMSHO
 70
     1
  9
$DIMPOST
  1

  9
$DIMAPOST
  1

  9
$DIMALT
 70
     0
  9
$DIMALTD
 70
     3
  9
$DIMALTF
 40
0.0393700787
  9
$DIMLFAC
 40
1.0
  9
$DIMTOFL
 70
     1
  9
$DIMTVP
 40
0.0
  9
$DIMTIX
 70
     0
  9
$DIMSOXD
 70
     0
  9
$DIMSAH
 70
     0
  9
$DIMBLK1
  1

  9
$DIMBLK2
  1

  9
$DIMSTYLE
  2
ISO-25
  9
$DIMCLRD
 70
     0
  9
$DIMCLRE
 70
     0
  9
$DIMCLRT
 70
     0
  9
$DIMTFAC
 40
1.0
  9
$DIMGAP
 40
1.524
  9
$DIMJUST
 70
     0
  9
$DIMSD1
 70
     0
  9
$DIMSD2
 70
     0
  9
$DIMTOLJ
 70
     0
  9
$DIMTZIN
 70
     0
  9
$DIMALTZ
 70
     0
  9
$DIMALTTZ
 70
     0
  9
$DIMUPT
 70
     0
  9
$DIMDEC
 70
     2
  9
$DIMTDEC
 70
     2
  9
$DIMALTU
 70
     2
  9
$DIMALTTD
 70
     3
  9
$DIMTXSTY
  7
Standard
  9
$DIMAUNIT
 70
     0
  9
$DIMADEC
 70
     2
  9
$DIMALTRND
 40
0.0
  9
$DIMAZIN
 70
     0
  9
$DIMDSEP
 70
    44
  9
$DIMATFIT
 70
     3
  9
$DIMFRAC
 70
     0
  9
$DIMLDRBLK
  1

  9
$DIMLUNIT
 70
     2
  9
$DIMLWD
 70
    -2
  9
$DIMLWE
 70
    -2
  9
$DIMTMOVE
 70
     0
  9
$LUNITS
 70
     2
  9
$LUPREC
 70
     2
  9
$SKETCHINC
 40
1.0
  9
$FILLETRAD
 40
10.0
  9
$AUNITS
 70
     0
  9
$AUPREC
 70
     2
  9
$MENU
  1
.
  9
$ELEVATION
 40
0.0
  9
$PELEVATION
 40
0.0
  9
$THICKNESS
 40
0.0
  9
$LIMCHECK
 70
     0
  9
$CHAMFERA
 40
0.0
  9
$CHAMFERB
 40
0.0
  9
$CHAMFERC
 40
0.0
  9
$CHAMFERD
 40
0.0
  9
$SKPOLY
 70
     0
  9
$TDCREATE
 40
2458985.663692697
  9
$TDUCREATE
 40
2458985.538692697
  9
$TDUPDATE
 40
2458985.663692951
  9
$TDUUPDATE
 40
2458985.538692951
  9
$TDINDWG
 40
0.0000000116
  9
$TDUSRTIMER
 40
0.0000000116
  9
$USRTIMER
 70
     1
  9
$ANGBASE
 50
0.0
  9
$ANGDIR
 70
     0
  9
$PDMODE
 70
     0
  9
$PDSIZE
 40
-1.0
  9
$PLINEWID
 40
0.0
  9
$SPLFRAME
 70
     0
  9
$SPLINETYPE
 70
     6
  9
$SPLINESEGS
 70
     8
  9
$HANDSEED
  5
C0
  9
$SURFTAB1
 70
     6
  9
$SURFTAB2
 70
     6
  9
$SURFTYPE
 70
     6
  9
$SURFU
 70
     6
  9
$SURFV
 70
     6
  9
$UCSBASE
  2

  9
$UCSNAME
  2

  9
$UCSORG
 10
0.0
 20
0.0
 30
0.0
  9
$UCSXDIR
 10
1.0
 20
0.0
 30
0.0
  9
$UCSYDIR
 10
0.0
 20
1.0
 30
0.0
  9
$UCSORTHOREF
  2

  9
$UCSORTHOVIEW
 70
     0
  9
$UCSORGTOP
 10
0.0
 20
0.0
 30
0.0
  9
$UCSORGBOTTOM
 10
0.0
 20
0.0
 30
0.0
  9
$UCSORGLEFT
 10
0.0
 20
0.0
 30
0.0
  9
$UCSORGRIGHT
 10
0.0
 20
0.0
 30
0.0
  9
$UCSORGFRONT
 10
0.0
 20
0.0
 30
0.0
  9
$UCSORGBACK
 10
0.0
 20
0.0
 30
0.0
  9
$PUCSBASE
  2

  9
$PUCSNAME
  2

  9
$PUCSORG
 10
0.0
 20
0.0
 30
0.0
  9
$PUCSXDIR
 10
1.0
 20
0.0
 30
0.0
  9
$PUCSYDIR
 10
0.0
 20
1.0
 30
0.0
  9
$PUCSORTHOREF
  2

  9
$PUCSORTHOVIEW
 70
     0
  9
$PUCSORGTOP
 10
0.0
 20
0.0
 30
0.0
  9
$PUCSORGBOTTOM
 10
0.0
 20
0.0
 30
0.0
  9
$PUCSORGLEFT
 10
0.0
 20
0.0
 30
0.0
  9
$PUCSORGRIGHT
 10
0.0
 20
0.0
 30
0.0
  9
$PUCSORGFRONT
 10
0.0
 20
0.0
 30
0.0
  9
$PUCSORGBACK
 10
0.0
 20
0.0
 30
0.0
  9
$USERI1
 70
     0
  9
$USERI2
 70
     0
  9
$USERI3
 70
     0
  9
$USERI4
 70
     0
  9
$USERI5
 70
     0
  9
$USERR1
 40
0.0
  9
$USERR2
 40
0.0
  9
$USERR3
 40
0.0
  9
$USERR4
 40
0.0
  9
$USERR5
 40
0.0
  9
$WORLDVIEW
 70
     1
  9
$SHADEDGE
 70
     3
  9
$SHADEDIF
 70
    70
  9
$TILEMODE
 70
     1
  9
$MAXACTVP
 70
    64
  9
$PINSBASE
 10
0.0
 20
0.0
 30
0.0
  9
$PLIMCHECK
 70
     0
  9
$PEXTMIN
 10
1.0000000000E+20
 20
1.0000000000E+20
 30
1.0000000000E+20
  9
$PEXTMAX
 10
-1.0000000000E+20
 20
-1.0000000000E+20
 30
-1.0000000000E+20
  9
$PLIMMIN
 10
0.0
 20
0.0
  9
$PLIMMAX
 10
420.0
 20
297.0
  9
$UNITMODE
 70
     0
  9
$VISRETAIN
 70
     1
  9
$PLINEGEN
 70
     0
  9
$PSLTSCALE
 70
     1
  9
$TREEDEPTH
 70
  3020
  9
$CMLSTYLE
  2
Standard
  9
$CMLJUST
 70
     0
  9
$CMLSCALE
 40
20.0
  9
$PROXYGRAPHICS
 70
     1
  9
$MEASUREMENT
 70
     1
  9
$CELWEIGHT
370
    -1
  9
$ENDCAPS
280
     0
  9
$JOINSTYLE
280
     0
  9
$LWDISPLAY
290
     1
  9
$INSUNITS
 70
     4
  9
$HYPERLINKBASE
  1

  9
$STYLESHEET
  1

  9
$XEDIT
290
     1
  9
$CEPSNTYPE
380
     0
  9
$PSTYLEMODE
290
     1
  9
$FINGERPRINTGUID
  2
{9f4dbd87-4479-4b33-a150-c127cf2f38f3}
  9
$VERSIONGUID
  2
{FAEB1C32-E019-11D5-929B-00C0DF256EC4}
  9
$EXTNAMES
290
     1
  9
$PSVPSCALE
 40
0.0
  9
$OLESTARTUP
290
     0
  0
ENDSEC
  0
SECTION
  2
CLASSES
  0
CLASS
  1
ACDBDICTIONARYWDFLT
  2
AcDbDictionaryWithDefault
  3
ObjectDBX Classes
 90
        0
280
     0
281
     0
  0
CLASS
  1
VISUALSTYLE
  2
AcDbVisualStyle
  3
ObjectDBX Classes
 90
     4095
280
     0
281
     0
  0
CLASS
  1
MATERIAL
  2
AcDbMaterial
  3
ObjectDBX Classes
 90
     1153
280
     0
281
     0
  0
CLASS
  1
SCALE
  2
AcDbScale
  3
ObjectDBX Classes
 90
     1153
280
     0
281
     0
  0
CLASS
  1
TABLESTYLE
  2
AcDbTableStyle
  3
ObjectDBX Classes
 90
     4095
280
     0
281
     0
  0
CLASS
  1
MLEADERSTYLE
  2
AcDbMLeaderStyle
  3
ACDB_MLEADERSTYLE_CLASS
 90
     4095
280
     0
281
     0
  0
CLASS
  1
SUN
  2
AcDbSun
  3
SCENEOE
 90
     1153
280
     0
281
     0
  0
CLASS
  1
ACDBPLACEHOLDER
  2
AcDbPlaceHolder
  3
ObjectDBX Classes
 90
        0
280
     0
281
     0
  0
CLASS
  1
LAYOUT
  2
AcDbLayout
  3
ObjectDBX Classes
 90
        0
280
     0
281
     0
  0
ENDSEC
  0
SECTION
  2
TABLES
  0
TABLE
  2
VPORT
  5
8
330
0
100
AcDbSymbolTable
 70
     1
  0
VPORT
  5
29
330
8
100
AcDbSymbolTableRecord
100
AcDbViewportTableRecord
  2
*Active
 70
     0
 10
0.0
 20
0.0
 11
1.0
 21
1.0
 12
139.7
 22
107.95
 13
0.0
 23
0.0
 14
10.0
 24
10.0
 15
10.0
 25
10.0
 16
0.0
 26
0.0
 36
1.0
 17
0.0
 27
0.0
 37
0.0
 40
215.9
 41
1.2941176471
 42
50.0
 43
0.0
 44
0.0
 50
0.0
 51
0.0
 71
     0
 72
  2000
 73
     1
 74
     3
 75
     0
 76
     0
 77
     0
 78
     0
281
     0
 65
     1
110
0.0
120
0.0
130
0.0
111
1.0
121
0.0
131
0.0
112
0.0
122
1.0
132
0.0
 79
     0
146
0.0
  0
ENDTAB
  0
TABLE
  2
LTYPE
  5
5
330
0
100
AcDbSymbolTable
 70
     6
  0
LTYPE
  5
14
330
5
100
AcDbSymbolTableRecord
100
AcDbLinetypeTableRecord
  2
ByBlock
 70
     0
  3

 72
    65
 73
     0
 40
0.0
  0
LTYPE
  5
15
330
5
100
AcDbSymbolTableRecord
100
AcDbLinetypeTableRecord
  2
ByLayer
 70
     0
  3

 72
    65
 73
     0
 40
0.0
  0
LTYPE
  5
16
330
5
100
AcDbSymbolTableRecord
100
AcDbLinetypeTableRecord
  2
Continuous
 70
     0
  3
Solid line
 72
    65
 73
     0
 40
0.0
  0
LTYPE
  5
6E
330
5
100
AcDbSymbolTableRecord
100
AcDbLinetypeTableRecord
  2
HIDDEN
 70
     0
  3
Hidden __ __ __ __ __ __ __ __ __ __ __ __ __ __
 72
    65
 73
     2
 40
1.905
 49
1.27
 74
     0
 49
-0.635
 74
     0
  0
LTYPE
  5
6F
330
5
100
AcDbSymbolTableRecord
100
AcDbLinetypeTableRecord
  2
PHANTOM
 70
     0
  3
Phantom ______  __  __  ______  __  __  ______
 72
    65
 73
     6
 40
12.7
 49
6.35
 74
     0
 49
-1.27
 74
     0
 49
1.27
 74
     0
 49
-1.27
 74
     0
 49
1.27
 74
     0
 49
-1.27
 74
     0
  0
LTYPE
  5
70
330
5
100
AcDbSymbolTableRecord
100
AcDbLinetypeTableRecord
  2
CENTER
 70
     0
  3
Center ____ _ ____ _ ____ _ ____ _ ____ _ ____
 72
    65
 73
     4
 40
10.16
 49
6.35
 74
     0
 49
-1.27
 74
     0
 49
1.27
 74
     0
 49
-1.27
 74
     0
  0
LTYPE
  5
71
330
5
100
AcDbSymbolTableRecord
100
AcDbLinetypeTableRecord
  2
CENTERX2
 70
     0
  3
Center (2x) ________  __  ________  __  _____
 72
    65
 73
     4
 40
20.32
 49
12.7
 74
     0
 49
-2.54
 74
     0
 49
2.54
 74
     0
 49
-2.54
 74
     0
  0
LTYPE
  5
72
330
5
100
AcDbSymbolTableRecord
100
AcDbLinetypeTableRecord
  2
DOT2
 70
     0
  3
Dot (.5x) ........................................
 72
    65
 73
     2
 40
0.635
 49
0.0
 74
     0
 49
-0.635
 74
     0
  0
ENDTAB
  0
TABLE
  2
LAYER
  5
2
330
0
100
AcDbSymbolTable
 70
    17
  0
LAYER
  5
10
330
2
100
AcDbSymbolTableRecord
100
AcDbLayerTableRecord
  2
0
 70
     0
 62
     7
  6
Continuous
370
    -3
390
F
  0
LAYER
  5
73
330
2
100
AcDbSymbolTableRecord
100
AcDbLayerTableRecord
  2
FORMAT
 70
     0
 62
     7
  6
Continuous
370
    -3
390
F
  0
LAYER
  5
74
330
2
100
AcDbSymbolTableRecord
100
AcDbLayerTableRecord
  2
YARDIMCI_GEOMETRI
 70
     0
 62
    -6
  6
Continuous
290
     0
370
    -3
390
F
  0
LAYER
  5
75
330
2
100
AcDbSymbolTableRecord
100
AcDbLayerTableRecord
  2
SAYFA_CERCEVESI
 70
     0
 62
     7
  6
Continuous
370
    25
390
F
  0
LAYER
  5
76
330
2
100
AcDbSymbolTableRecord
100
AcDbLayerTableRecord
  2
ANTET
 70
     0
 62
     7
  6
Continuous
370
    -3
390
F
  0
LAYER
  5
77
330
2
100
AcDbSymbolTableRecord
100
AcDbLayerTableRecord
  2
OLCU
 70
     0
 62
   150
  6
Continuous
370
    -3
390
F
  0
LAYER
  5
78
330
2
100
AcDbSymbolTableRecord
100
AcDbLayerTableRecord
  2
METIN
 70
     0
 62
    96
  6
Continuous
370
    -3
390
F
  0
LAYER
  5
79
330
2
100
AcDbSymbolTableRecord
100
AcDbLayerTableRecord
  2
BALON
 70
     0
 62
     5
  6
Continuous
370
    -3
390
F
  0
LAYER
  5
7A
330
2
100
AcDbSymbolTableRecord
100
AcDbLayerTableRecord
  2
VURGU
 70
     0
 62
     7
  6
Continuous
370
    -3
390
F
  0
LAYER
  5
7B
330
2
100
AcDbSymbolTableRecord
100
AcDbLayerTableRecord
  2
SILIK
 70
     0
 62
     7
  6
Continuous
370
    -3
390
F
  0
LAYER
  5
7C
330
2
100
AcDbSymbolTableRecord
100
AcDbLayerTableRecord
  2
MODEL
 70
     0
 62
     7
  6
Continuous
370
    -3
390
F
  0
LAYER
  5
7D
330
2
100
AcDbSymbolTableRecord
100
AcDbLayerTableRecord
  2
DETAYLANDıRMA
 70
     0
 62
   190
  6
Continuous
370
    -3
390
F
  0
LAYER
  5
7E
330
2
100
AcDbSymbolTableRecord
100
AcDbLayerTableRecord
  2
TOLERANS
 70
     0
 62
   230
  6
Continuous
370
    -3
390
F
  0
LAYER
  5
7F
330
2
100
AcDbSymbolTableRecord
100
AcDbLayerTableRecord
  2
MERKEZ_CIZGILERI
 70
     0
 62
    30
  6
Continuous
370
    -3
390
F
  0
LAYER
  5
80
330
2
100
AcDbSymbolTableRecord
100
AcDbLayerTableRecord
  2
KESIT-DETAY_CIZGILERI
 70
     0
 62
     7
  6
Continuous
370
    -3
390
F
  0
LAYER
  5
81
330
2
100
AcDbSymbolTableRecord
100
AcDbLayerTableRecord
  2
\U+041E\U+0421\U+0415\U+0412\U+042B\U+0415
 70
     0
 62
     7
  6
Continuous
370
    -3
390
F
  0
LAYER
  5
82
330
2
100
AcDbSymbolTableRecord
100
AcDbLayerTableRecord
  2
\U+0412\U+041E\U+0414\U+042F\U+041D\U+042B\U+0415_\U+0417\U+041D\U+0410\U+041A\U+0418
 70
     0
 62
    11
  6
Continuous
370
    -3
390
F
  0
ENDTAB
  0
TABLE
  2
STYLE
  5
3
330
0
100
AcDbSymbolTable
 70
     1
  0
STYLE
  5
11
330
3
100
AcDbSymbolTableRecord
100
AcDbTextStyleTableRecord
  2
Standard
 70
     0
 40
0.0
 41
1.0
 50
0.0
 71
     0
 42
3.5
  3
txt
  4

  0
ENDTAB
  0
TABLE
  2
VIEW
  5
6
330
0
100
AcDbSymbolTable
 70
     0
  0
ENDTAB
  0
TABLE
  2
UCS
  5
7
330
0
100
AcDbSymbolTable
 70
     0
  0
ENDTAB
  0
TABLE
  2
APPID
  5
9
330
0
100
AcDbSymbolTable
 70
     1
  0
APPID
  5
12
330
9
100
AcDbSymbolTableRecord
100
AcDbRegAppTableRecord
  2
ACAD
 70
     0
  0
ENDTAB
  0
TABLE
  2
DIMSTYLE
  5
A
330
0
100
AcDbSymbolTable
 70
     1
100
AcDbDimStyleTable
  0
DIMSTYLE
105
27
330
A
100
AcDbSymbolTableRecord
100
AcDbDimStyleTableRecord
  2
ISO-25
 70
     0
 41
2.5
 42
0.625
 43
3.75
 44
1.25
 73
     0
 74
     0
 77
     1
 78
     8
140
2.5
141
2.5
143
0.0393700787
147
0.625
171
     3
172
     1
178
     0
271
     2
272
     2
274
     3
278
    44
283
     0
284
     8
340
11
  0
ENDTAB
  0
TABLE
  2
BLOCK_RECORD
  5
1
330
0
100
AcDbSymbolTable
 70
     1
  0
BLOCK_RECORD
  5
1F
330
1
100
AcDbSymbolTableRecord
100
AcDbBlockTableRecord
  2
*Model_Space
340
22
  0
BLOCK_RECORD
  5
1B
330
1
100
AcDbSymbolTableRecord
100
AcDbBlockTableRecord
  2
*Paper_Space
340
1E
  0
BLOCK_RECORD
  5
23
330
1
100
AcDbSymbolTableRecord
100
AcDbBlockTableRecord
  2
*Paper_Space0
340
26
  0
ENDTAB
  0
ENDSEC
  0
SECTION
  2
BLOCKS
  0
BLOCK
  5
20
330
1F
100
AcDbEntity
  8
0
100
AcDbBlockBegin
  2
*Model_Space
 70
     0
 10
0.0
 20
0.0
 30
0.0
  3
*Model_Space
  1

  0
ENDBLK
  5
21
330
1F
100
AcDbEntity
  8
0
100
AcDbBlockEnd
  0
BLOCK
  5
1C
330
1B
100
AcDbEntity
 67
     1
  8
0
100
AcDbBlockBegin
  2
*Paper_Space
 70
     0
 10
0.0
 20
0.0
 30
0.0
  3
*Paper_Space
  1

  0
ENDBLK
  5
1D
330
1B
100
AcDbEntity
 67
     1
  8
0
100
AcDbBlockEnd
  0
BLOCK
  5
24
330
23
100
AcDbEntity
  8
0
100
AcDbBlockBegin
  2
*Paper_Space0
 70
     0
 10
0.0
 20
0.0
 30
0.0
  3
*Paper_Space0
  1

  0
ENDBLK
  5
25
330
23
100
AcDbEntity
  8
0
100
AcDbBlockEnd
  0
ENDSEC
  0
SECTION
  2
ENTITIES
  0
CIRCLE
  5
83
330
1F
100
AcDbEntity
  8
0
  6
Continuous
 62
     7
370
    25
100
AcDbCircle
 10
140.0897616587
 20
101.8913067307
 30
0.0
 40
500.0
  0
CIRCLE
  5
84
330
1F
100
AcDbEntity
  8
0
  6
Continuous
 62
     7
370
    25
100
AcDbCircle
 10
140.0897616587
 20
101.8913067307
 30
0.0
 40
440.7
  0
CIRCLE
  5
85
330
1F
100
AcDbEntity
  8
0
  6
Continuous
 62
     7
370
    25
100
AcDbCircle
 10
140.0897616587
 20
101.8913067307
 30
0.0
 40
525.0000000000001
  0
CIRCLE
  5
86
330
1F
100
AcDbEntity
  8
0
  6
Continuous
 62
     7
370
    25
100
AcDbCircle
 10
140.0897616587
 20
101.8913067307
 30
0.0
 40
556.0000000000001
  0
LINE
  5
87
330
1F
100
AcDbEntity
  8
0
  6
Continuous
 62
     7
370
    25
100
AcDbLine
 10
696.0897616587
 20
1086.4272984668
 30
0.0
 11
696.0897616587
 21
1151.4272984668
 31
0.0
  0
LINE
  5
88
330
1F
100
AcDbEntity
  8
0
  6
Continuous
 62
     7
370
    25
100
AcDbLine
 10
-415.9102383413
 20
1151.4272984668
 30
0.0
 11
-415.9102383413
 21
1086.4272984668
 31
0.0
  0
LINE
  5
89
330
1F
100
AcDbEntity
  8
0
  6
Continuous
 62
     7
370
    25
100
AcDbLine
 10
665.0897616587
 20
1151.4272984668
 30
0.0
 11
640.0897616587
 21
1206.4272984668
 31
0.0
  0
LINE
  5
8A
330
1F
100
AcDbEntity
  8
0
  6
Continuous
 62
     7
370
    25
100
AcDbLine
 10
-359.9102383413
 20
1206.4272984668
 30
0.0
 11
-384.9102383413
 21
1151.4272984668
 31
0.0
  0
LINE
  5
8B
330
1F
100
AcDbEntity
  8
0
  6
Continuous
 62
     7
370
    25
100
AcDbLine
 10
640.0897616587
 20
1206.4272984668
 30
0.0
 11
640.0897616587
 21
1251.4272984668
 31
0.0
  0
LINE
  5
8C
330
1F
100
AcDbEntity
  8
0
  6
Continuous
 62
     7
370
    25
100
AcDbLine
 10
-359.9102383413
 20
1251.4272984668
 30
0.0
 11
-359.9102383413
 21
1206.4272984668
 31
0.0
  0
LINE
  5
8D
330
1F
100
AcDbEntity
  8
0
  6
Continuous
 62
     7
370
    25
100
AcDbLine
 10
696.0897616587
 20
1086.4272984668
 30
0.0
 11
-415.9102383413
 21
1086.4272984668
 31
0.0
  0
LINE
  5
8E
330
1F
100
AcDbEntity
  8
0
  6
Continuous
 62
     7
370
    25
100
AcDbLine
 10
696.0897616587
 20
1151.4272984668
 30
0.0
 11
-415.9102383413
 21
1151.4272984668
 31
0.0
  0
LINE
  5
8F
330
1F
100
AcDbEntity
  8
0
  6
Continuous
 62
     7
370
    25
100
AcDbLine
 10
640.0897616587
 20
1206.4272984668
 30
0.0
 11
-359.9102383413
 21
1206.4272984668
 31
0.0
  0
LINE
  5
90
330
1F
100
AcDbEntity
  8
0
  6
Continuous
 62
     7
370
    25
100
AcDbLine
 10
640.0897616587
 20
1251.4272984668
 30
0.0
 11
-359.9102383413
 21
1251.4272984668
 31
0.0
  0
LINE
  5
91
330
1F
100
AcDbEntity
  8
0
  6
Continuous
 62
     7
370
    25
100
AcDbLine
 10
-990.6229575769
 20
657.8913067307
 30
0.0
 11
-1055.6229575769
 21
657.8913067307
 31
0.0
  0
LINE
  5
92
330
1F
100
AcDbEntity
  8
0
  6
Continuous
 62
     7
370
    25
100
AcDbLine
 10
-1055.6229575769
 20
-454.1086932693
 30
0.0
 11
-990.6229575769
 21
-454.1086932693
 31
0.0
  0
LINE
  5
93
330
1F
100
AcDbEntity
  8
0
  6
Continuous
 62
     7
370
    25
100
AcDbLine
 10
-1055.6229575769
 20
626.8913067307
 30
0.0
 11
-1110.6229575769
 21
601.8913067307
 31
0.0
  0
LINE
  5
94
330
1F
100
AcDbEntity
  8
0
  6
Continuous
 62
     7
370
    25
100
AcDbLine
 10
-1110.6229575769
 20
-398.1086932693
 30
0.0
 11
-1055.6229575769
 21
-423.1086932693
 31
0.0
  0
LINE
  5
95
330
1F
100
AcDbEntity
  8
0
  6
Continuous
 62
     7
370
    25
100
AcDbLine
 10
-1110.6229575769
 20
601.8913067307
 30
0.0
 11
-1155.6229575769
 21
601.8913067307
 31
0.0
  0
LINE
  5
96
330
1F
100
AcDbEntity
  8
0
  6
Continuous
 62
     7
370
    25
100
AcDbLine
 10
-1155.6229575769
 20
-398.1086932693
 30
0.0
 11
-1110.6229575769
 21
-398.1086932693
 31
0.0
  0
LINE
  5
97
330
1F
100
AcDbEntity
  8
0
  6
Continuous
 62
     7
370
    25
100
AcDbLine
 10
-990.6229575769
 20
657.8913067307
 30
0.0
 11
-990.6229575769
 21
-454.1086932693
 31
0.0
  0
LINE
  5
98
330
1F
100
AcDbEntity
  8
0
  6
Continuous
 62
     7
370
    25
100
AcDbLine
 10
-1055.6229575769
 20
657.8913067307
 30
0.0
 11
-1055.6229575769
 21
-454.1086932693
 31
0.0
  0
LINE
  5
99
330
1F
100
AcDbEntity
  8
0
  6
Continuous
 62
     7
370
    25
100
AcDbLine
 10
-1110.6229575769
 20
601.8913067307
 30
0.0
 11
-1110.6229575769
 21
-398.1086932693
 31
0.0
  0
LINE
  5
9A
330
1F
100
AcDbEntity
  8
0
  6
Continuous
 62
     7
370
    25
100
AcDbLine
 10
-1155.6229575769
 20
601.8913067307
 30
0.0
 11
-1155.6229575769
 21
-398.1086932693
 31
0.0
  0
LINE
  5
9B
330
1F
100
AcDbEntity
  8
0
  6
Continuous
 62
     7
370
    25
100
AcDbLine
 10
-415.9102383413
 20
-987.9858387982
 30
0.0
 11
-415.9102383413
 21
-1052.9858387982
 31
0.0
  0
LINE
  5
9C
330
1F
100
AcDbEntity
  8
0
  6
Continuous
 62
     7
370
    25
100
AcDbLine
 10
696.0897616587
 20
-1052.9858387982
 30
0.0
 11
696.0897616587
 21
-987.9858387982
 31
0.0
  0
LINE
  5
9D
330
1F
100
AcDbEntity
  8
0
  6
Continuous
 62
     7
370
    25
100
AcDbLine
 10
-384.9102383413
 20
-1052.9858387982
 30
0.0
 11
-359.9102383413
 21
-1107.9858387982
 31
0.0
  0
LINE
  5
9E
330
1F
100
AcDbEntity
  8
0
  6
Continuous
 62
     7
370
    25
100
AcDbLine
 10
640.0897616587
 20
-1107.9858387982
 30
0.0
 11
665.0897616587
 21
-1052.9858387982
 31
0.0
  0
LINE
  5
9F
330
1F
100
AcDbEntity
  8
0
  6
Continuous
 62
     7
370
    25
100
AcDbLine
 10
-359.9102383413
 20
-1107.9858387982
 30
0.0
 11
-359.9102383413
 21
-1152.9858387982
 31
0.0
  0
LINE
  5
A0
330
1F
100
AcDbEntity
  8
0
  6
Continuous
 62
     7
370
    25
100
AcDbLine
 10
640.0897616587
 20
-1152.9858387982
 30
0.0
 11
640.0897616587
 21
-1107.9858387982
 31
0.0
  0
LINE
  5
A1
330
1F
100
AcDbEntity
  8
0
  6
Continuous
 62
     7
370
    25
100
AcDbLine
 10
-415.9102383413
 20
-987.9858387982
 30
0.0
 11
696.0897616587
 21
-987.9858387982
 31
0.0
  0
LINE
  5
A2
330
1F
100
AcDbEntity
  8
0
  6
Continuous
 62
     7
370
    25
100
AcDbLine
 10
-415.9102383413
 20
-1052.9858387982
 30
0.0
 11
696.0897616587
 21
-1052.9858387982
 31
0.0
  0
LINE
  5
A3
330
1F
100
AcDbEntity
  8
0
  6
Continuous
 62
     7
370
    25
100
AcDbLine
 10
-359.9102383413
 20
-1107.9858387982
 30
0.0
 11
640.0897616587
 21
-1107.9858387982
 31
0.0
  0
LINE
  5
A4
330
1F
100
AcDbEntity
  8
0
  6
Continuous
 62
     7
370
    25
100
AcDbLine
 10
-359.9102383413
 20
-1152.9858387982
 30
0.0
 11
640.0897616587
 21
-1152.9858387982
 31
0.0
  0
LINE
  5
A5
330
1F
100
AcDbEntity
  8
0
  6
Continuous
 62
     7
370
    25
100
AcDbLine
 10
1170.8368781493
 20
-454.1086932693
 30
0.0
 11
1235.8368781493
 21
-454.1086932693
 31
0.0
  0
LINE
  5
A6
330
1F
100
AcDbEntity
  8
0
  6
Continuous
 62
     7
370
    25
100
AcDbLine
 10
1235.8368781493
 20
657.8913067307
 30
0.0
 11
1170.8368781493
 21
657.8913067307
 31
0.0
  0
LINE
  5
A7
330
1F
100
AcDbEntity
  8
0
  6
Continuous
 62
     7
370
    25
100
AcDbLine
 10
1235.8368781493
 20
-423.1086932693
 30
0.0
 11
1290.8368781493
 21
-398.1086932693
 31
0.0
  0
LINE
  5
A8
330
1F
100
AcDbEntity
  8
0
  6
Continuous
 62
     7
370
    25
100
AcDbLine
 10
1290.8368781493
 20
601.8913067307
 30
0.0
 11
1235.8368781493
 21
626.8913067307
 31
0.0
  0
LINE
  5
A9
330
1F
100
AcDbEntity
  8
0
  6
Continuous
 62
     7
370
    25
100
AcDbLine
 10
1290.8368781493
 20
-398.1086932693
 30
0.0
 11
1335.8368781493
 21
-398.1086932693
 31
0.0
  0
LINE
  5
AA
330
1F
100
AcDbEntity
  8
0
  6
Continuous
 62
     7
370
    25
100
AcDbLine
 10
1335.8368781493
 20
601.8913067307
 30
0.0
 11
1290.8368781493
 21
601.8913067307
 31
0.0
  0
LINE
  5
AB
330
1F
100
AcDbEntity
  8
0
  6
Continuous
 62
     7
370
    25
100
AcDbLine
 10
1170.8368781493
 20
101.8913067307
 30
0.0
 11
1170.8368781493
 21
657.8913067307
 31
0.0
  0
LINE
  5
AC
330
1F
100
AcDbEntity
  8
0
  6
Continuous
 62
     7
370
    25
100
AcDbLine
 10
1170.8368781493
 20
-454.1086932693
 30
0.0
 11
1170.8368781493
 21
101.8913067307
 31
0.0
  0
LINE
  5
AD
330
1F
100
AcDbEntity
  8
0
  6
Continuous
 62
     7
370
    25
100
AcDbLine
 10
1235.8368781493
 20
101.8913067307
 30
0.0
 11
1235.8368781493
 21
657.8913067307
 31
0.0
  0
LINE
  5
AE
330
1F
100
AcDbEntity
  8
0
  6
Continuous
 62
     7
370
    25
100
AcDbLine
 10
1235.8368781493
 20
-454.1086932693
 30
0.0
 11
1235.8368781493
 21
101.8913067307
 31
0.0
  0
LINE
  5
AF
330
1F
100
AcDbEntity
  8
0
  6
Continuous
 62
     7
370
    25
100
AcDbLine
 10
1290.8368781493
 20
101.8913067307
 30
0.0
 11
1290.8368781493
 21
601.8913067307
 31
0.0
  0
LINE
  5
B0
330
1F
100
AcDbEntity
  8
0
  6
Continuous
 62
     7
370
    25
100
AcDbLine
 10
1290.8368781493
 20
-398.1086932693
 30
0.0
 11
1290.8368781493
 21
101.8913067307
 31
0.0
  0
LINE
  5
B1
330
1F
100
AcDbEntity
  8
0
  6
Continuous
 62
     7
370
    25
100
AcDbLine
 10
1335.8368781493
 20
101.8913067307
 30
0.0
 11
1335.8368781493
 21
601.8913067307
 31
0.0
  0
LINE
  5
B2
330
1F
100
AcDbEntity
  8
0
  6
Continuous
 62
     7
370
    25
100
AcDbLine
 10
1335.8368781493
 20
-398.1086932693
 30
0.0
 11
1335.8368781493
 21
101.8913067307
 31
0.0
  0
LINE
  5
B3
330
1F
100
AcDbEntity
  8
0
  6
Continuous
 62
     7
370
    25
100
AcDbLine
 10
1605.2508860502
 20
-630.4175490365
 30
0.0
 11
1559.288945273
 21
-603.8842854023
 31
0.0
  0
LINE
  5
B4
330
1F
100
AcDbEntity
  8
0
  6
Continuous
 62
     7
370
    25
100
AcDbLine
 10
1003.3341299274
 20
-1566.9306203696
 30
0.0
 11
1049.2960707045
 21
-1593.4638840038
 31
0.0
  0
LINE
  5
B5
330
1F
100
AcDbEntity
  8
0
  6
Continuous
 62
     7
370
    25
100
AcDbLine
 10
1492.400347794
 20
-629.9317986205
 30
0.0
 11
1460.5805426406
 21
-611.5626161045
 31
0.0
  0
LINE
  5
B6
330
1F
100
AcDbEntity
  8
0
  6
Continuous
 62
     7
370
    25
100
AcDbLine
 10
960.6211763225
 20
-1477.6114784851
 30
0.0
 11
992.4409814759
 21
-1495.9806610012
 31
0.0
  0
LWPOLYLINE
  5
B7
330
1F
100
AcDbEntity
  8
0
  6
Continuous
 62
     7
370
    25
100
AcDbPolyline
 90
      122
 70
   128
 43
0.0
 10
1605.2508860502
 20
-630.4175490365
 10
1605.2734783773
 20
-630.4305934292
 10
1612.4554063501
 20
-634.7979939118
 10
1619.4418848747
 20
-639.4924041826
 10
1626.2281257675
 20
-644.5106069274
 10
1632.8094780781
 20
-649.8491629206
 10
1639.1814312764
 20
-655.5044133827
 10
1645.339618344
 20
-661.4724824875
 10
1651.2798187669
 20
-667.7492800185
 10
1656.9979614287
 20
-674.3305041722
 10
1662.4901273998
 20
-681.2116445063
 10
1667.7525526242
 20
-688.387985031
 10
1672.7816304984
 20
-695.8546074409
 10
1677.5739143436
 20
-703.606394486
 10
1682.126119768
 20
-711.6380334787
 10
1686.4351269172
 20
-719.9440199348
 10
1690.497982613
 20
-728.518661346
 10
1694.3119023771
 20
-737.3560810815
 10
1697.8742723393
 20
-746.4502224152
 10
1701.1826510293
 20
-755.7948526769
 10
1704.2347710495
 20
-765.3835675238
 10
1707.0285406294
 20
-775.2097953297
 10
1709.5620450588
 20
-785.2668016889
 10
1711.8335480003
 20
-795.5476940317
 10
1713.8414926794
 20
-806.0454263478
 10
1715.5845029509
 20
-816.752804016
 10
1717.0613842427
 20
-827.6624887345
 10
1718.2711243742
 20
-838.7670035503
 10
1719.2128942499
 20
-850.0587379836
 10
1719.8860484278
 20
-861.5299532437
 10
1720.2901255616
 20
-873.1727875327
 10
1720.4248487171
 20
-884.9792614335
 10
1720.2901255616
 20
-896.9412833786
 10
1719.8860484278
 20
-909.0506551957
 10
1719.2128942499
 20
-921.2990777263
 10
1718.2711243742
 20
-933.6781565133
 10
1717.0613842427
 20
-946.1794075546
 10
1715.5845029509
 20
-958.794263117
 10
1713.8414926794
 20
-971.5140776088
 10
1711.8335480003
 20
-984.3301335045
 10
1709.5620450588
 20
-997.2336473194
 10
1707.0285406294
 20
-1010.2157756298
 10
1704.2347710495
 20
-1023.2676211335
 10
1701.1826510293
 20
-1036.3802387473
 10
1697.8742723393
 20
-1049.5446417384
 10
1694.3119023771
 20
-1062.7518078823
 10
1690.497982613
 20
-1075.9926856472
 10
1686.4351269172
 20
-1089.2582003968
 10
1682.126119768
 20
-1102.5392606099
 10
1677.5739143436
 20
-1115.8267641113
 10
1672.7816304984
 20
-1129.1116043097
 10
1667.7525526242
 20
-1142.3846764394
 10
1662.4901273998
 20
-1155.6368837997
 10
1656.9979614287
 20
-1168.8591439896
 10
1651.2798187669
 20
-1182.0423951325
 10
1645.339618344
 20
-1195.1776020864
 10
1639.1814312764
 20
-1208.2557626368
 10
1632.8094780781
 20
-1221.2679136657
 10
1626.2281257675
 20
-1234.2051372946
 10
1619.4418848747
 20
-1247.0585669967
 10
1612.4554063501
 20
-1259.8193936735
 10
1605.2734783773
 20
-1272.4788716916
 10
1597.901023091
 20
-1285.0283248772
 10
1590.3430932036
 20
-1297.459152462
 10
1582.6048685428
 20
-1309.7628349776
 10
1574.6916525013
 20
-1321.9309400947
 10
1566.6088684021
 20
-1333.9551284018
 10
1558.3620557816
 20
-1345.8271591208
 10
1549.9568665933
 20
-1357.538895755
 10
1541.399061334
 20
-1369.082311665
 10
1532.694505096
 20
-1380.4494955703
 10
1523.8491635472
 20
-1391.6326569706
 10
1514.869098843
 20
-1402.624131486
 10
1505.7604654712
 20
-1413.4163861086
 10
1496.529506034
 20
-1424.0020243664
 10
1487.18254697
 20
-1434.3737913916
 10
1477.725994218
 20
-1444.5245788932
 10
1468.1663288269
 20
-1454.4474300284
 10
1458.5101025139
 20
-1464.1355441708
 10
1448.7639331741
 20
-1473.5822815708
 10
1438.9345003452
 20
-1482.7811679065
 10
1429.0285406294
 20
-1491.7258987208
 10
1419.0528430767
 20
-1500.4103437419
 10
1409.014244532
 20
-1508.8285510849
 10
1398.9196249492
 20
-1516.9747513312
 10
1388.7759026763
 20
-1524.8433614819
 10
1378.5900297139
 20
-1532.4289887846
 10
1368.3689869505
 20
-1539.7264344295
 10
1358.1197793784
 20
-1546.7306971116
 10
1347.8494312923
 20
-1553.4369764593
 10
1337.5649814759
 20
-1559.8406763236
 10
1327.2734783773
 20
-1565.9374079287
 10
1316.9819752788
 20
-1571.722992879
 10
1306.6975254624
 20
-1577.1934660238
 10
1296.4271773763
 20
-1582.345078174
 10
1286.1779698042
 20
-1587.1742986719
 10
1275.9569270408
 20
-1591.677817811
 10
1265.7710540784
 20
-1595.8525491043
 10
1255.6273318055
 20
-1599.6956313996
 10
1245.5327122227
 20
-1603.20443084
 10
1235.4941136779
 20
-1606.3765426698
 10
1225.5184161253
 20
-1609.209792882
 10
1215.6124564095
 20
-1611.7022397084
 10
1205.7830235806
 20
-1613.8521749505
 10
1196.0368542408
 20
-1615.65812515
 10
1186.3806279278
 20
-1617.1188525989
 10
1176.8209625367
 20
-1618.2333561875
 10
1167.3644097847
 20
-1619.0008720907
 10
1158.0174507207
 20
-1619.4208742916
 10
1148.7864912835
 20
-1619.4930749415
 10
1139.6778579117
 20
-1619.2174245578
 10
1130.6977932075
 20
-1618.5941120574
 10
1121.8524516587
 20
-1617.6235646276
 10
1113.1478954207
 20
-1616.3064474331
 10
1104.5900901614
 20
-1614.6436631603
 10
1096.1849009731
 20
-1612.6363513984
 10
1087.9380883526
 20
-1610.2858878587
 10
1079.8553042534
 20
-1607.5938834315
 10
1071.9420882119
 20
-1604.5621830821
 10
1064.2038635511
 20
-1601.1928645865
 10
1056.6459336637
 20
-1597.4882371073
 10
1049.2960707045
 20
-1593.4638840038
  0
LWPOLYLINE
  5
B8
330
1F
100
AcDbEntity
  8
0
  6
Continuous
 62
     7
370
    25
100
AcDbPolyline
 90
      163
 70
   128
 43
0.0
 10
1381.6144344061
 20
-588.530800798
 10
1383.0665998523
 20
-588.1383765241
 10
1392.9725595681
 20
-585.6459296977
 10
1402.801992397
 20
-583.4959944556
 10
1412.5481617368
 20
-581.6900442561
 10
1422.2043880498
 20
-580.2293168073
 10
1431.7640534409
 20
-579.1148132186
 10
1441.2206061928
 20
-578.3472973154
 10
1450.5675652569
 20
-577.9272951145
 10
1459.798524694
 20
-577.8550944646
 10
1468.9071580659
 20
-578.1307448484
 10
1477.8872227701
 20
-578.7540573488
 10
1486.7325643188
 20
-579.7246047786
 10
1495.4371205569
 20
-581.041721973
 10
1503.9949258162
 20
-582.7045062458
 10
1512.4001150045
 20
-584.7118180077
 10
1520.646927625
 20
-587.0622815474
 10
1528.7297117242
 20
-589.7542859746
 10
1536.6429277657
 20
-592.785986324
 10
1544.3811524265
 20
-596.1553048196
 10
1551.9390823138
 20
-599.8599322988
 10
1559.3115376002
 20
-603.897329795
 10
1566.493465573
 20
-608.2647302775
 10
1573.4799440975
 20
-612.9591405484
 10
1580.2661849904
 20
-617.9773432931
 10
1586.847537301
 20
-623.3158992864
 10
1593.2194904993
 20
-628.9711497485
 10
1599.3776775669
 20
-634.9392188532
 10
1605.3178779898
 20
-641.2160163842
 10
1611.0360206516
 20
-647.7972405379
 10
1616.5281866227
 20
-654.678380872
 10
1621.7906118471
 20
-661.8547213967
 10
1626.8196897213
 20
-669.3213438066
 10
1631.6119735665
 20
-677.0731308518
 10
1636.1641789908
 20
-685.1047698444
 10
1640.47318614
 20
-693.4107563005
 10
1644.5360418359
 20
-701.9853977118
 10
1648.3499615999
 20
-710.8228174473
 10
1651.9123315622
 20
-719.916958781
 10
1655.2207102522
 20
-729.2615890427
 10
1658.2728302724
 20
-738.8503038896
 10
1661.0665998523
 20
-748.6765316955
 10
1663.6001042817
 20
-758.7335380547
 10
1665.8716072232
 20
-769.0144303974
 10
1667.8795519022
 20
-779.5121627136
 10
1669.6225621738
 20
-790.2195403818
 10
1671.0994434656
 20
-801.1292251002
 10
1672.3091835971
 20
-812.233739916
 10
1673.2509534728
 20
-823.5254743494
 10
1673.9241076507
 20
-834.9966896095
 10
1674.3281847845
 20
-846.6395238985
 10
1674.4629079399
 20
-858.4459977992
 10
1674.3281847845
 20
-870.4080197443
 10
1673.9241076507
 20
-882.5173915615
 10
1673.2509534728
 20
-894.765814092
 10
1672.3091835971
 20
-907.1448928791
 10
1671.0994434656
 20
-919.6461439203
 10
1669.6225621738
 20
-932.2609994828
 10
1667.8795519022
 20
-944.9808139746
 10
1665.8716072232
 20
-957.7968698702
 10
1663.6001042817
 20
-970.7003836852
 10
1661.0665998523
 20
-983.6825119956
 10
1658.2728302724
 20
-996.7343574992
 10
1655.2207102522
 20
-1009.8469751131
 10
1651.9123315622
 20
-1023.0113781041
 10
1648.3499615999
 20
-1036.2185442481
 10
1644.5360418358
 20
-1049.4594220129
 10
1640.47318614
 20
-1062.7249367625
 10
1636.1641789908
 20
-1076.0059969756
 10
1631.6119735665
 20
-1089.293500477
 10
1626.8196897213
 20
-1102.5783406755
 10
1621.7906118471
 20
-1115.8514128052
 10
1616.5281866227
 20
-1129.1036201655
 10
1611.0360206516
 20
-1142.3258803554
 10
1605.3178779898
 20
-1155.5091314982
 10
1599.3776775668
 20
-1168.6443384522
 10
1593.2194904993
 20
-1181.7224990026
 10
1586.847537301
 20
-1194.7346500314
 10
1580.2661849904
 20
-1207.6718736603
 10
1573.4799440975
 20
-1220.5253033625
 10
1566.493465573
 20
-1233.2861300392
 10
1559.3115376002
 20
-1245.9456080574
 10
1551.9390823138
 20
-1258.495061243
 10
1544.3811524264
 20
-1270.9258888277
 10
1536.6429277657
 20
-1283.2295713434
 10
1528.7297117242
 20
-1295.3976764605
 10
1520.646927625
 20
-1307.4218647675
 10
1512.4001150045
 20
-1319.2938954866
 10
1503.9949258162
 20
-1331.0056321208
 10
1495.4371205569
 20
-1342.5490480308
 10
1486.7325643188
 20
-1353.916231936
 10
1477.8872227701
 20
-1365.0993933364
 10
1468.9071580659
 20
-1376.0908678517
 10
1459.798524694
 20
-1386.8831224744
 10
1450.5675652569
 20
-1397.4687607322
 10
1441.2206061928
 20
-1407.8405277574
 10
1431.7640534409
 20
-1417.9913152589
 10
1422.2043880498
 20
-1427.9141663941
 10
1412.5481617368
 20
-1437.6022805365
 10
1402.801992397
 20
-1447.0490179366
 10
1392.9725595681
 20
-1456.2479042723
 10
1383.0665998523
 20
-1465.1926350866
 10
1373.0909022996
 20
-1473.8770801076
 10
1363.0523037549
 20
-1482.2952874507
 10
1352.957684172
 20
-1490.4414876969
 10
1342.8139618991
 20
-1498.3100978476
 10
1332.6280889368
 20
-1505.8957251504
 10
1322.4070461734
 20
-1513.1931707952
 10
1312.1578386012
 20
-1520.1974334774
 10
1301.8874905152
 20
-1526.9037128251
 10
1291.6030406988
 20
-1533.3074126894
 10
1281.3115376002
 20
-1539.4041442944
 10
1271.0200345017
 20
-1545.1897292448
 10
1260.7355846853
 20
-1550.6602023896
 10
1250.4652365992
 20
-1555.8118145397
 10
1240.216029027
 20
-1560.6410350376
 10
1229.9949862637
 20
-1565.1445541768
 10
1219.8091133013
 20
-1569.3192854701
 10
1209.6653910284
 20
-1573.1623677653
 10
1199.5707714456
 20
-1576.6711672058
 10
1189.5321729008
 20
-1579.8432790356
 10
1179.5564753481
 20
-1582.6765292478
 10
1169.6505156324
 20
-1585.1689760742
 10
1159.8210828034
 20
-1587.3189113163
 10
1150.0749134637
 20
-1589.1248615158
 10
1140.4186871506
 20
-1590.5855889646
 10
1130.8590217596
 20
-1591.7000925532
 10
1121.4024690076
 20
-1592.4676084565
 10
1112.0555099436
 20
-1592.8876106573
 10
1102.8245505064
 20
-1592.9598113073
 10
1093.7159171345
 20
-1592.6841609235
 10
1084.7358524304
 20
-1592.0608484231
 10
1075.8905108816
 20
-1591.0903009933
 10
1067.1859546436
 20
-1589.7731837989
 10
1058.6281493843
 20
-1588.1103995261
 10
1050.222960196
 20
-1586.1030877642
 10
1041.9761475755
 20
-1583.7526242245
 10
1033.8933634762
 20
-1581.0606197973
 10
1025.9801474347
 20
-1578.0289194479
 10
1018.241922774
 20
-1574.6596009523
 10
1010.6839928866
 20
-1570.9549734731
 10
1003.3115376002
 20
-1566.9175759769
 10
996.1296096274
 20
-1562.5501754943
 10
989.1431311029
 20
-1557.8557652235
 10
982.3568902101
 20
-1552.8375624787
 10
975.7755378994
 20
-1547.4990064855
 10
969.4035847011
 20
-1541.8437560234
 10
963.2453976336
 20
-1535.8756869186
 10
957.3051972106
 20
-1529.5988893877
 10
951.5870545489
 20
-1523.017665234
 10
946.0948885777
 20
-1516.1365248998
 10
940.8324633534
 20
-1508.9601843751
 10
935.8033854792
 20
-1501.4935619652
 10
931.0111016339
 20
-1493.7417749201
 10
926.4588962096
 20
-1485.7101359274
 10
922.1498890604
 20
-1477.4041494714
 10
918.0870333646
 20
-1468.8295080601
 10
914.2731136005
 20
-1459.9920883246
 10
910.7107436383
 20
-1450.8979469909
 10
907.4023649483
 20
-1441.5533167292
 10
904.350244928
 20
-1431.9646018823
 10
901.5564753481
 20
-1422.1383740764
 10
901.1866486678
 20
-1420.7463073479
  0
LWPOLYLINE
  5
B9
330
1F
100
AcDbEntity
  8
0
  6
Continuous
 62
     7
370
    25
100
AcDbPolyline
 90
      145
 70
   128
 43
0.0
 10
1450.4314141128
 20
-606.1611130588
 10
1458.4476900183
 20
-606.414158426
 10
1466.9270676617
 20
-607.0027178913
 10
1475.2792336924
 20
-607.9191520651
 10
1483.4984639532
 20
-609.1628328692
 10
1491.5791253941
 20
-610.732907947
 10
1499.5156799334
 20
-612.6283012473
 10
1507.3026882531
 20
-614.8477137623
 10
1514.9348135266
 20
-617.3896244175
 10
1522.4068250766
 20
-620.2522911143
 10
1529.7136019595
 20
-623.433751924
 10
1536.8501364755
 20
-626.9318264323
 10
1543.8115376002
 20
-630.7441172335
 10
1550.5930343371
 20
-634.868011574
 10
1557.1899789871
 20
-639.3006831427
 10
1563.5978503337
 20
-644.0390940078
 10
1569.8122567422
 20
-649.0799966993
 10
1575.8289391686
 20
-654.4199364342
 10
1581.6437740795
 20
-660.0552534846
 10
1587.2527762774
 20
-665.9820856856
 10
1592.6521016325
 20
-672.1963710825
 10
1597.8380497168
 20
-678.6938507145
 10
1602.8070663405
 20
-685.4700715337
 10
1607.5557459879
 20
-692.5203894567
 10
1612.0808341511
 20
-699.8399725479
 10
1616.3792295608
 20
-707.4238043306
 10
1620.4479863114
 20
-715.2666872252
 10
1624.2843158803
 20
-723.3632461118
 10
1627.8855890388
 20
-731.7079320131
 10
1631.2493376542
 20
-740.2950258983
 10
1634.3732563813
 20
-749.1186426023
 10
1637.2552042421
 20
-758.1727348588
 10
1639.8932060936
 20
-767.4510974453
 10
1642.2854539811
 20
-776.9473714356
 10
1644.4303083773
 20
-786.6550485577
 10
1646.3262993063
 20
-796.5674756548
 10
1647.9721273504
 20
-806.6778592444
 10
1649.3666645415
 20
-816.9792701746
 10
1650.5089551333
 20
-827.464648373
 10
1651.3982162569
 20
-838.126807685
 10
1652.0338384572
 20
-848.9584407994
 10
1652.4153861106
 20
-859.9521242557
 10
1652.5425977232
 20
-871.1003235325
 10
1652.4153861106
 20
-882.3953982109
 10
1652.0338384572
 20
-893.8296072109
 10
1651.3982162569
 20
-905.3951140967
 10
1650.5089551333
 20
-917.0839924478
 10
1649.3666645415
 20
-928.8882312907
 10
1647.9721273504
 20
-940.7997405898
 10
1646.3262993063
 20
-952.8103567916
 10
1644.4303083773
 20
-964.9118484197
 10
1642.2854539811
 20
-977.0959217161
 10
1639.8932060936
 20
-989.3542263258
 10
1637.2552042421
 20
-1001.678361019
 10
1634.3732563813
 20
-1014.0598794494
 10
1631.2493376542
 20
-1026.4902959427
 10
1627.8855890388
 20
-1038.9610913124
 10
1624.2843158803
 20
-1051.4637186983
 10
1620.4479863114
 20
-1063.9896094241
 10
1616.3792295608
 20
-1076.5301788699
 10
1612.0808341511
 20
-1089.0768323559
 10
1607.5557459879
 20
-1101.6209710326
 10
1602.8070663405
 20
-1114.1539977737
 10
1597.8380497168
 20
-1126.667323069
 10
1592.6521016325
 20
-1139.1523709101
 10
1587.2527762774
 20
-1151.6005846691
 10
1581.6437740795
 20
-1164.003432962
 10
1575.8289391686
 20
-1176.3524154961
 10
1569.8122567421
 20
-1188.6390688956
 10
1563.5978503337
 20
-1200.8549725021
 10
1557.1899789871
 20
-1212.9917541453
 10
1550.5930343371
 20
-1225.0410958814
 10
1543.8115376002
 20
-1236.9947396935
 10
1536.8501364755
 20
-1248.8444931511
 10
1529.7136019595
 20
-1260.5822350252
 10
1522.4068250766
 20
-1272.1999208538
 10
1514.9348135266
 20
-1283.6895884554
 10
1507.3026882531
 20
-1295.0433633857
 10
1499.5156799334
 20
-1306.2534643344
 10
1491.5791253941
 20
-1317.3122084584
 10
1483.4984639532
 20
-1328.2120166468
 10
1475.2792336924
 20
-1338.9454187156
 10
1466.9270676617
 20
-1349.5050585271
 10
1458.4476900183
 20
-1359.8836990317
 10
1449.8469121043
 20
-1370.0742272276
 10
1441.130628463
 20
-1380.0696590357
 10
1432.3048128001
 20
-1389.8631440865
 10
1423.3755138886
 20
-1399.4479704144
 10
1414.348851424
 20
-1408.8175690583
 10
1405.2310118299
 20
-1417.9655185632
 10
1396.028244018
 20
-1426.8855493816
 10
1386.7468551058
 20
-1435.5715481698
 10
1377.3932060936
 20
-1444.0175619782
 10
1367.9737075052
 20
-1452.2178023309
 10
1358.4948149944
 20
-1460.1666491926
 10
1348.9630249207
 20
-1467.8586548208
 10
1339.3848698969
 20
-1475.288547499
 10
1329.7669143119
 20
-1482.45123515
 10
1320.1157498321
 20
-1489.3418088255
 10
1310.4379908836
 20
-1495.9555460703
 10
1300.7402701188
 20
-1502.2879141594
 10
1291.0292338713
 20
-1508.334573204
 10
1281.3115376002
 20
-1514.091379126
 10
1271.5938413291
 20
-1519.5543864982
 10
1261.8828050816
 20
-1524.7198512482
 10
1252.1850843169
 20
-1529.5842332245
 10
1242.5073253683
 20
-1534.1441986227
 10
1232.8561608886
 20
-1538.3966222703
 10
1223.2382053036
 20
-1542.3385897685
 10
1213.6600502797
 20
-1545.9673994897
 10
1204.128260206
 20
-1549.2805644289
 10
1194.6493676952
 20
-1552.2758139085
 10
1185.2298691068
 20
-1554.9510951341
 10
1175.8762200946
 20
-1557.3045746015
 10
1166.5948311824
 20
-1559.3346393534
 10
1157.3920633706
 20
-1561.039898085
 10
1148.2742237764
 20
-1562.4191820969
 10
1139.2475613118
 20
-1563.471546097
 10
1130.3182624003
 20
-1564.1962688473
 10
1121.4924467374
 20
-1564.5928536593
 10
1112.7761630962
 20
-1564.6610287334
 10
1104.1753851821
 20
-1564.4007473459
 10
1095.6960075387
 20
-1563.8121878806
 10
1087.343841508
 20
-1562.8957537068
 10
1079.1246112473
 20
-1561.6520729026
 10
1071.0439498064
 20
-1560.0819978249
 10
1063.1073952671
 20
-1558.1866045246
 10
1055.3203869474
 20
-1555.9671920096
 10
1047.6882616738
 20
-1553.4252813544
 10
1040.2162501238
 20
-1550.5626146575
 10
1032.9094732409
 20
-1547.3811538478
 10
1025.772938725
 20
-1543.8830793396
 10
1018.8115376002
 20
-1540.0707885384
 10
1012.0300408633
 20
-1535.9468941978
 10
1005.4330962134
 20
-1531.5142226292
 10
999.0252248667
 20
-1526.775811764
 10
992.8108184583
 20
-1521.7349090726
 10
986.7941360318
 20
-1516.3949693377
 10
980.9793011209
 20
-1510.7596522873
 10
975.370298923
 20
-1504.8328200863
 10
969.9709735679
 20
-1498.6185346894
 10
964.7850254837
 20
-1492.1210550573
 10
959.8160088599
 20
-1485.3448342382
 10
955.0673292125
 20
-1478.2945163151
 10
950.8682018974
 20
-1471.5237420514
  0
LWPOLYLINE
  5
BA
330
1F
100
AcDbEntity
  8
0
  6
Continuous
 62
     7
370
    25
100
AcDbPolyline
 90
      121
 70
   128
 43
0.0
 10
1492.400347794
 20
-629.9317986205
 10
1493.24776944
 20
-630.4243322607
 10
1499.7646859821
 20
-634.4413051911
 10
1506.1007387078
 20
-638.7594424705
 10
1512.2514745792
 20
-643.3757092711
 10
1518.2125708009
 20
-648.2868612369
 10
1523.9798378579
 20
-653.4894467637
 10
1529.5492224604
 20
-658.979809425
 10
1534.916810392
 20
-664.7540905421
 10
1540.0788292612
 20
-670.8082318955
 10
1545.0316511521
 20
-677.1379785772
 10
1549.7717951745
 20
-683.7388819812
 10
1554.2959299105
 20
-690.6063029302
 10
1558.6008757551
 20
-697.7354149357
 10
1562.6836071518
 20
-705.1212075901
 10
1566.541254718
 20
-712.7584900885
 10
1570.1711072627
 20
-720.6418948763
 10
1573.5706136911
 20
-728.7658814219
 10
1576.7373847978
 20
-737.1247401106
 10
1579.6691949461
 20
-745.7125962574
 10
1582.363983632
 20
-754.5234142356
 10
1584.8198569325
 20
-763.5510017188
 10
1587.0350888366
 20
-772.789014033
 10
1589.0081224584
 20
-782.2309586157
 10
1590.7375711311
 20
-791.8701995787
 10
1592.2222193817
 20
-801.6999623721
 10
1593.4610237855
 20
-811.7133385456
 10
1594.4531136989
 20
-821.9032906034
 10
1595.1977918718
 20
-832.2626569508
 10
1595.6945349373
 20
-842.7841569269
 10
1595.9429937797
 20
-853.4603959218
 10
1595.9429937797
 20
-864.2838705736
 10
1595.6945349373
 20
-875.2469740419
 10
1595.1977918718
 20
-886.3420013535
 10
1594.4531136989
 20
-897.5611548182
 10
1593.4610237855
 20
-908.8965495087
 10
1592.2222193817
 20
-920.3402188021
 10
1590.7375711311
 20
-931.8841199793
 10
1589.0081224584
 20
-943.5201398771
 10
1587.0350888366
 20
-955.2401005905
 10
1584.8198569325
 20
-967.03576522
 10
1582.363983632
 20
-978.8988436609
 10
1579.6691949461
 20
-990.8209984292
 10
1576.7373847978
 20
-1002.7938505215
 10
1573.5706136911
 20
-1014.808985304
 10
1570.1711072627
 20
-1026.8579584261
 10
1566.541254718
 20
-1038.9323017554
 10
1562.6836071517
 20
-1051.0235293289
 10
1558.6008757551
 20
-1063.1231433174
 10
1554.2959299105
 20
-1075.2226399974
 10
1549.7717951745
 20
-1087.3135157282
 10
1545.0316511521
 20
-1099.3872729277
 10
1540.0788292612
 20
-1111.4354260448
 10
1534.916810392
 20
-1123.4495075236
 10
1529.5492224604
 20
-1135.4210737536
 10
1523.9798378579
 20
-1147.3417110048
 10
1518.2125708009
 20
-1159.2030413402
 10
1512.2514745792
 20
-1170.9967285047
 10
1506.1007387078
 20
-1182.714483783
 10
1499.7646859821
 20
-1194.3480718257
 10
1493.24776944
 20
-1205.8893164371
 10
1486.5545692321
 20
-1217.3301063209
 10
1479.6897894031
 20
-1228.6624007817
 10
1472.6582545852
 20
-1239.8782353756
 10
1465.4649066077
 20
-1250.9697275077
 10
1458.1148010237
 20
-1261.9290819723
 10
1450.613103557
 20
-1272.7485964312
 10
1442.9650864718
 20
-1283.4206668272
 10
1435.1761248668
 20
-1293.9377927281
 10
1427.2516928981
 20
-1304.2925825981
 10
1419.1973599316
 20
-1314.4777589929
 10
1411.0187866287
 20
-1324.4861636739
 10
1402.7217209684
 20
-1334.3107626395
 10
1394.3119942069
 20
-1343.9446510685
 10
1385.7955167798
 20
-1353.3810581728
 10
1377.1782741483
 20
-1362.6133519561
 10
1368.466322592
 20
-1371.6350438749
 10
1359.6657849531
 20
-1380.4397933986
 10
1350.7828463328
 20
-1389.0214124658
 10
1341.8237497446
 20
-1397.3738698333
 10
1332.7947917263
 20
-1405.491295315
 10
1323.7023179153
 20
-1413.3679839073
 10
1314.5527185882
 20
-1420.9983997988
 10
1305.3524241702
 20
-1428.3771802611
 10
1296.1079007154
 20
-1435.4991394171
 10
1286.8256453624
 20
-1442.3592718866
 10
1277.5121817682
 20
-1448.9527563036
 10
1268.1740555233
 20
-1455.2749587045
 10
1258.8178295512
 20
-1461.3214357858
 10
1249.4500794964
 20
-1467.087938026
 10
1240.0773891021
 20
-1472.5704126728
 10
1230.7063455841
 20
-1477.7650065909
 10
1221.3435350005
 20
-1482.6680689706
 10
1211.9955376233
 20
-1487.2761538933
 10
1202.6689233137
 20
-1491.586022753
 10
1193.3702469045
 20
-1495.5946465332
 10
1184.1060435935
 20
-1499.2992079351
 10
1174.8828243508
 20
-1502.6971033579
 10
1165.7070713421
 20
-1505.7859447284
 10
1156.5852333736
 20
-1508.5635611797
 10
1147.5237213594
 20
-1511.0280005766
 10
1138.528903816
 20
-1513.1775308877
 10
1129.6071023865
 20
-1515.0106414029
 10
1120.7645873974
 20
-1516.5260437946
 10
1112.007573452
 20
-1517.7226730236
 10
1103.3422150626
 20
-1518.5996880877
 10
1094.7746023253
 20
-1519.1564726124
 10
1086.3107566395
 20
-1519.3926352841
 10
1077.9566264761
 20
-1519.3080101256
 10
1069.7180831969
 20
-1518.9026566121
 10
1061.6009169282
 20
-1518.1768596301
 10
1053.6108324914
 20
-1517.1311292764
 10
1045.7534453935
 20
-1515.7662005003
 10
1038.0342778806
 20
-1514.0830325867
 10
1030.4587550568
 20
-1512.0828084818
 10
1023.0322010712
 20
-1509.7669339623
 10
1015.7598353765
 20
-1507.1370366465
 10
1008.64676906
 20
-1504.1949648514
 10
1001.6980012522
 20
-1500.9427862927
 10
994.918415613
 20
-1497.3827866324
 10
992.4409814759
 20
-1495.9806610012
  0
LWPOLYLINE
  5
BB
330
1F
100
AcDbEntity
  8
0
  6
Continuous
 62
     7
370
    25
100
AcDbPolyline
 90
      238
 70
   128
 43
0.0
 10
857.0474688883
 20
-1248.6890752505
 10
857.1717092246
 20
-1237.794829076
 10
857.5443429163
 20
-1226.7647946419
 10
858.1651080729
 20
-1215.6067239609
 10
859.0335684147
 20
-1204.3284590309
 10
860.1491135795
 20
-1192.9379263232
 10
861.5109595518
 20
-1181.4431312122
 10
863.1181492132
 20
-1169.8521523487
 10
864.9695530155
 20
-1158.1731359826
 10
867.0638697747
 20
-1146.4142902372
 10
869.3996275852
 20
-1134.5838793407
 10
871.9751848541
 20
-1122.690217818
 10
874.7887314555
 20
-1110.7416646471
 10
877.838290002
 20
-1098.7466173842
 10
881.1217172352
 20
-1086.7135062624
 10
884.6367055312
 20
-1074.6507882661
 10
888.3807845229
 20
-1062.5669411878
 10
892.3513228362
 20
-1050.4704576698
 10
896.5455299391
 20
-1038.3698392351
 10
900.9604581031
 20
-1026.2735903132
 10
905.5930044748
 20
-1014.1902122624
 10
910.4399132569
 20
-1002.1281973953
 10
915.4977779958
 20
-990.0960230101
 10
920.7630439764
 20
-978.1021454331
 10
926.2320107198
 20
-966.154994075
 10
931.9008345843
 20
-954.262965507
 10
937.7655314668
 20
-942.4344175594
 10
943.8219796029
 20
-930.6776634479
 10
950.0659224633
 20
-919.0009659306
 10
956.4929717459
 20
-907.4125315011
 10
963.0986104596
 20
-895.920504621
 10
969.8781960988
 20
-884.5329619957
 10
976.8269639066
 20
-873.2579068979
 10
983.9400302231
 20
-862.1032635432
 10
991.2123959178
 20
-851.0768715207
 10
998.6389499034
 20
-840.1864802831
 10
1006.2144727272
 20
-829.4397437006
 10
1013.9336402401
 20
-818.8442146815
 10
1021.791027338
 20
-808.407339864
 10
1029.7811117749
 20
-798.1364543825
 10
1037.8982780435
 20
-788.0387767127
 10
1046.1368213227
 20
-778.1214035982
 10
1054.4909514861
 20
-768.3913050626
 10
1062.9547971719
 20
-758.8553195116
 10
1071.5224099092
 20
-749.5201489259
 10
1080.1877682986
 20
-740.3923541521
 10
1088.944782244
 20
-731.4783502906
 10
1097.7872972331
 20
-722.784402188
 10
1106.7090986626
 20
-714.3166200333
 10
1115.703916206
 20
-706.080955064
 10
1124.7654282202
 20
-698.0831953835
 10
1133.8872661887
 20
-690.328961893
 10
1143.0630191974
 20
-682.8237043414
 10
1152.2862384402
 20
-675.5726974948
 10
1161.5504417511
 20
-668.5810374294
 10
1170.8491181603
 20
-661.8536379502
 10
1180.17573247
 20
-655.3952271373
 10
1189.5237298471
 20
-649.210344023
 10
1198.8865404307
 20
-643.3033354017
 10
1208.2575839487
 20
-637.6783527751
 10
1217.630274343
 20
-632.3393494343
 10
1226.9980243978
 20
-627.2900776814
 10
1236.3542503699
 20
-622.5340861924
 10
1245.6923766148
 20
-618.0747175232
 10
1255.005840209
 20
-613.9151057603
 10
1264.288095562
 20
-610.0581743184
 10
1273.5326190168
 20
-606.5066338853
 10
1282.7329134348
 20
-603.2629805174
 10
1291.8825127619
 20
-600.3294938849
 10
1300.9749865729
 20
-597.70823567
 10
1310.0039445912
 20
-595.4010481179
 10
1318.9630411795
 20
-593.4095527419
 10
1327.8459797997
 20
-591.7351491837
 10
1336.6465174386
 20
-590.37901423
 10
1345.3584689949
 20
-589.3421009853
 10
1353.9757116264
 20
-588.6251382022
 10
1362.4921890535
 20
-588.2286297687
 10
1370.901915815
 20
-588.1528543549
 10
1379.1989814754
 20
-588.3978652163
 10
1387.3775547782
 20
-588.9634901571
 10
1395.4318877447
 20
-589.8493316506
 10
1403.3563197134
 20
-591.054767119
 10
1411.1452813184
 20
-592.578949371
 10
1418.7932984036
 20
-594.4208071967
 10
1426.2949958703
 20
-596.5790461211
 10
1433.6451014543
 20
-599.0521493133
 10
1440.8384494318
 20
-601.8383786531
 10
1447.8699842497
 20
-604.935775952
 10
1454.7347640787
 20
-608.3421643299
 10
1461.4279642866
 20
-612.0551497447
 10
1467.9448808287
 20
-616.0721226751
 10
1474.2809335544
 20
-620.3902599545
 10
1480.4316694258
 20
-625.0065267551
 10
1486.3927656475
 20
-629.9176787209
 10
1492.1600327045
 20
-635.1202642477
 10
1497.729417307
 20
-640.610626909
 10
1503.0970052387
 20
-646.3849080261
 10
1508.2590241078
 20
-652.4390493795
 10
1513.2118459987
 20
-658.7687960611
 10
1517.9519900212
 20
-665.3696994652
 10
1522.4761247571
 20
-672.2371204142
 10
1526.7810706017
 20
-679.3662324197
 10
1530.8638019984
 20
-686.7520250741
 10
1534.7214495646
 20
-694.3893075725
 10
1538.3513021094
 20
-702.2727123602
 10
1541.7508085377
 20
-710.3966989059
 10
1544.9175796444
 20
-718.7555575946
 10
1547.8493897927
 20
-727.3434137414
 10
1550.5441784786
 20
-736.1542317196
 10
1553.0000517791
 20
-745.1818192028
 10
1555.2152836832
 20
-754.419831517
 10
1557.188317305
 20
-763.8617760997
 10
1558.9177659777
 20
-773.5010170627
 10
1560.4024142283
 20
-783.3307798561
 10
1561.6412186321
 20
-793.3441560296
 10
1562.6333085455
 20
-803.5341080874
 10
1563.3779867184
 20
-813.8934744348
 10
1563.8747297839
 20
-824.4149744108
 10
1564.1231886263
 20
-835.0912134058
 10
1564.1231886263
 20
-845.9146880576
 10
1563.8747297839
 20
-856.8777915258
 10
1563.3779867184
 20
-867.9728188375
 10
1562.6333085455
 20
-879.1919723022
 10
1561.6412186321
 20
-890.5273669927
 10
1560.4024142283
 20
-901.9710362861
 10
1558.9177659777
 20
-913.5149374633
 10
1557.188317305
 20
-925.1509573611
 10
1555.2152836832
 20
-936.8709180745
 10
1553.0000517791
 20
-948.666582704
 10
1550.5441784786
 20
-960.5296611449
 10
1547.8493897927
 20
-972.4518159132
 10
1544.9175796444
 20
-984.4246680055
 10
1541.7508085377
 20
-996.439802788
 10
1538.3513021094
 20
-1008.4887759101
 10
1534.7214495646
 20
-1020.5631192394
 10
1530.8638019984
 20
-1032.6543468129
 10
1526.7810706017
 20
-1044.7539608013
 10
1522.4761247571
 20
-1056.8534574814
 10
1517.9519900212
 20
-1068.9443332122
 10
1513.2118459987
 20
-1081.0180904116
 10
1508.2590241078
 20
-1093.0662435288
 10
1503.0970052386
 20
-1105.0803250076
 10
1497.729417307
 20
-1117.0518912376
 10
1492.1600327045
 20
-1128.9725284888
 10
1486.3927656475
 20
-1140.8338588242
 10
1480.4316694258
 20
-1152.6275459887
 10
1474.2809335544
 20
-1164.345301267
 10
1467.9448808287
 20
-1175.9788893097
 10
1461.4279642866
 20
-1187.5201339211
 10
1454.7347640787
 20
-1198.9609238049
 10
1447.8699842497
 20
-1210.2932182657
 10
1440.8384494318
 20
-1221.5090528596
 10
1433.6451014543
 20
-1232.6005449917
 10
1426.2949958703
 20
-1243.5598994563
 10
1418.7932984036
 20
-1254.3794139152
 10
1411.1452813184
 20
-1265.0514843112
 10
1403.3563197134
 20
-1275.5686102121
 10
1395.4318877447
 20
-1285.9234000821
 10
1387.3775547782
 20
-1296.1085764769
 10
1379.1989814754
 20
-1306.1169811579
 10
1370.901915815
 20
-1315.9415801235
 10
1362.4921890535
 20
-1325.5754685525
 10
1353.9757116264
 20
-1335.0118756568
 10
1345.3584689949
 20
-1344.2441694401
 10
1336.6465174386
 20
-1353.2658613589
 10
1327.8459797997
 20
-1362.0706108826
 10
1318.9630411795
 20
-1370.6522299498
 10
1310.0039445912
 20
-1379.0046873173
 10
1300.9749865729
 20
-1387.122112799
 10
1291.8825127619
 20
-1394.9988013913
 10
1282.7329134348
 20
-1402.6292172828
 10
1273.5326190168
 20
-1410.007997745
 10
1264.288095562
 20
-1417.1299569011
 10
1255.005840209
 20
-1423.9900893706
 10
1245.6923766148
 20
-1430.5835737875
 10
1236.3542503699
 20
-1436.9057761885
 10
1226.9980243978
 20
-1442.9522532698
 10
1217.630274343
 20
-1448.71875551
 10
1208.2575839487
 20
-1454.2012301568
 10
1198.8865404307
 20
-1459.3958240749
 10
1189.5237298471
 20
-1464.2988864546
 10
1180.1757324699
 20
-1468.9069713772
 10
1170.8491181603
 20
-1473.216840237
 10
1161.5504417511
 20
-1477.2254640172
 10
1152.2862384401
 20
-1480.9300254191
 10
1143.0630191974
 20
-1484.3279208419
 10
1133.8872661887
 20
-1487.4167622124
 10
1124.7654282202
 20
-1490.1943786637
 10
1115.703916206
 20
-1492.6588180606
 10
1106.7090986626
 20
-1494.8083483717
 10
1097.7872972331
 20
-1496.6414588869
 10
1088.944782244
 20
-1498.1568612785
 10
1080.1877682986
 20
-1499.3534905076
 10
1071.5224099092
 20
-1500.2305055717
 10
1062.9547971719
 20
-1500.7872900964
 10
1054.4909514861
 20
-1501.0234527681
 10
1046.1368213227
 20
-1500.9388276096
 10
1037.8982780435
 20
-1500.5334740961
 10
1029.7811117749
 20
-1499.8076771141
 10
1021.791027338
 20
-1498.7619467604
 10
1013.9336402401
 20
-1497.3970179843
 10
1006.2144727272
 20
-1495.7138500707
 10
998.6389499034
 20
-1493.7136259658
 10
991.2123959178
 20
-1491.3977514463
 10
983.9400302231
 20
-1488.7678541305
 10
976.8269639066
 20
-1485.8257823353
 10
969.8781960988
 20
-1482.5736037767
 10
963.0986104596
 20
-1479.0136041164
 10
956.4929717459
 20
-1475.148285356
 10
950.0659224633
 20
-1470.9803640782
 10
943.8219796029
 20
-1466.5127695375
 10
937.7655314668
 20
-1461.7486416016
 10
931.9008345843
 20
-1456.6913285449
 10
926.2320107197
 20
-1451.3443846949
 10
920.7630439764
 20
-1445.7115679343
 10
915.4977779958
 20
-1439.7968370601
 10
910.4399132569
 20
-1433.6043490013
 10
905.5930044748
 20
-1427.1384558971
 10
900.9604581031
 20
-1420.4037020385
 10
896.5455299391
 20
-1413.4048206742
 10
892.3513228362
 20
-1406.1467306844
 10
888.3807845229
 20
-1398.6345331236
 10
884.6367055312
 20
-1390.8735076353
 10
881.1217172352
 20
-1382.8691087418
 10
877.838290002
 20
-1374.6269620105
 10
874.7887314555
 20
-1366.1528601001
 10
871.9751848541
 20
-1357.4527586898
 10
869.3996275852
 20
-1348.5327722933
 10
867.0638697747
 20
-1339.3991699616
 10
864.9695530155
 20
-1330.0583708768
 10
863.1181492132
 20
-1320.5169398412
 10
861.5109595518
 20
-1310.7815826627
 10
860.1491135795
 20
-1300.8591414428
 10
859.0335684147
 20
-1290.756589767
 10
858.1651080729
 20
-1280.4810278045
 10
857.5443429163
 20
-1270.0396773174
 10
857.1717092246
 20
-1259.439876586
 10
857.0474688883
 20
-1248.6890752505
  0
LWPOLYLINE
  5
BC
330
1F
100
AcDbEntity
  8
0
  6
Continuous
 62
     7
370
    25
100
AcDbPolyline
 90
      223
 70
   128
 43
0.0
 10
898.9789010127
 20
-1224.4825747349
 10
899.1037033888
 20
-1214.2271969119
 10
899.4780105523
 20
-1203.8359397442
 10
900.1015226884
 20
-1193.3171264807
 10
900.9737403729
 20
-1182.6791825413
 10
902.0939649717
 20
-1171.9306287675
 10
903.4612992009
 20
-1161.0800745979
 10
905.0746478452
 20
-1150.1362111719
 10
906.9327186354
 20
-1139.1078043682
 10
909.0340232833
 20
-1128.0036877839
 10
911.3768786736
 20
-1116.832755658
 10
913.9594082125
 20
-1105.6039557483
 10
916.7795433308
 20
-1094.3262821636
 10
919.8350251403
 20
-1083.0087681599
 10
923.1234062436
 20
-1071.6604789048
 10
926.6420526941
 20
-1060.2905042164
 10
930.3881461063
 20
-1048.9079512826
 10
934.3586859127
 20
-1037.5219373662
 10
938.5504917673
 20
-1026.1415825022
 10
942.9602060933
 20
-1014.776002193
 10
947.5842967724
 20
-1003.4343001064
 10
952.4190599738
 20
-992.1255607845
 10
957.4606231209
 20
-980.8588423664
 10
962.7049479935
 20
-969.6431693332
 10
968.147833962
 20
-958.4875252793
 10
973.7849213522
 20
-947.4008457168
 10
979.6116949374
 20
-936.3920109181
 10
985.6234875549
 20
-925.4698388032
 10
991.8154838444
 20
-914.6430778765
 10
998.1827241049
 20
-903.9204002193
 10
1004.7201082678
 20
-893.3103945438
 10
1011.4223999814
 20
-882.8215593135
 10
1018.2842308054
 20
-872.462295936
 10
1025.300104511
 20
-862.240902034
 10
1032.4644014833
 20
-852.1655647982
 10
1039.7713832224
 20
-842.2443544306
 10
1047.2151969399
 20
-832.4852176792
 10
1054.7898802471
 20
-822.8959714737
 10
1062.4893659304
 20
-813.4842966638
 10
1070.3074868114
 20
-804.2577318671
 10
1078.2379806867
 20
-795.2236674305
 10
1086.2744953434
 20
-786.3893395111
 10
1094.4105936478
 20
-777.7618242798
 10
1102.639758701
 20
-769.3480322534
 10
1110.955399059
 20
-761.1547027596
 10
1119.3508540121
 20
-753.1883985386
 10
1127.8193989205
 20
-745.4555004868
 10
1136.3542506002
 20
-737.9622025453
 10
1144.9485727567
 20
-730.7145067391
 10
1153.5954814602
 20
-723.7182183694
 10
1162.2880506598
 20
-716.9789413637
 10
1171.0193177316
 20
-710.5020737867
 10
1179.7822890548
 20
-704.2928035172
 10
1188.5699456141
 20
-698.3561040924
 10
1197.3752486218
 20
-692.6967307239
 10
1206.1911451555
 20
-687.3192164892
 10
1215.0105738076
 20
-682.2278687008
 10
1223.8264703413
 20
-677.4267654556
 10
1232.631773349
 20
-672.919752369
 10
1241.4194299084
 20
-668.7104394944
 10
1250.1824012315
 20
-664.8021984314
 10
1258.9136683033
 20
-661.1981596254
 10
1267.606237503
 20
-657.9012098603
 10
1276.2531462064
 20
-654.9139899459
 10
1284.8474683629
 20
-652.2388926028
 10
1293.3823200427
 20
-649.8780605459
 10
1301.8508649511
 20
-647.8333847681
 10
1310.2463199042
 20
-646.1065030255
 10
1318.5619602621
 20
-644.6987985258
 10
1326.7911253153
 20
-643.6113988203
 10
1334.9272236197
 20
-642.8451749007
 10
1342.9637382765
 20
-642.4007405014
 10
1350.8942321517
 20
-642.2784516081
 10
1358.7123530327
 20
-642.4784061724
 10
1366.411838716
 20
-643.0004440336
 10
1373.9865220232
 20
-643.8441470467
 10
1381.4303357407
 20
-645.0088394177
 10
1388.7373174798
 20
-646.4935882446
 10
1395.9016144521
 20
-648.2972042646
 10
1402.9174881577
 20
-650.4182428071
 10
1409.7793189817
 20
-652.8550049503
 10
1416.4816106953
 20
-655.6055388825
 10
1423.0189948582
 20
-658.6676414652
 10
1429.3862351188
 20
-662.0388599977
 10
1435.5782314082
 20
-665.716494182
 10
1441.5900240257
 20
-669.6975982856
 10
1447.4167976109
 20
-673.9789835006
 10
1453.0538850011
 20
-678.5572204985
 10
1458.4967709696
 20
-683.4286421767
 10
1463.7410958422
 20
-688.5893465956
 10
1468.7826589893
 20
-694.0352001046
 10
1473.6174221907
 20
-699.7618406525
 10
1478.2415128698
 20
-705.7646812818
 10
1482.6512271959
 20
-712.0389138026
 10
1486.8430330505
 20
-718.5795126439
 10
1490.8135728568
 20
-725.3812388793
 10
1494.559666269
 20
-732.4386444227
 10
1498.0783127196
 20
-739.7460763929
 10
1501.3666938228
 20
-747.2976816409
 10
1504.4221756323
 20
-755.0874114384
 10
1507.2423107506
 20
-763.1090263227
 10
1509.8248402896
 20
-771.3561010945
 10
1512.1676956799
 20
-779.8220299643
 10
1514.2690003277
 20
-788.5000318436
 10
1516.1270711179
 20
-797.3831557765
 10
1517.7404197622
 20
-806.4642865071
 10
1519.1077539914
 20
-815.7361501791
 10
1520.2279785902
 20
-825.1913201615
 10
1521.1001962747
 20
-834.822222998
 10
1521.7237084108
 20
-844.6211444723
 10
1522.0980155743
 20
-854.580235788
 10
1522.2228179505
 20
-864.6915198547
 10
1522.0980155743
 20
-874.9468976777
 10
1521.7237084108
 20
-885.3381548454
 10
1521.1001962747
 20
-895.8569681089
 10
1520.2279785902
 20
-906.4949120483
 10
1519.1077539914
 20
-917.2434658221
 10
1517.7404197622
 20
-928.0940199917
 10
1516.1270711179
 20
-939.0378834177
 10
1514.2690003277
 20
-950.0662902214
 10
1512.1676956799
 20
-961.1704068057
 10
1509.8248402896
 20
-972.3413389316
 10
1507.2423107506
 20
-983.5701388413
 10
1504.4221756323
 20
-994.847812426
 10
1501.3666938228
 20
-1006.1653264297
 10
1498.0783127196
 20
-1017.5136156848
 10
1494.559666269
 20
-1028.8835903732
 10
1490.8135728568
 20
-1040.266143307
 10
1486.8430330505
 20
-1051.6521572234
 10
1482.6512271959
 20
-1063.0325120874
 10
1478.2415128698
 20
-1074.3980923966
 10
1473.6174221907
 20
-1085.7397944832
 10
1468.7826589893
 20
-1097.0485338051
 10
1463.7410958422
 20
-1108.3152522232
 10
1458.4967709696
 20
-1119.5309252564
 10
1453.0538850011
 20
-1130.6865693103
 10
1447.4167976109
 20
-1141.7732488729
 10
1441.5900240257
 20
-1152.7820836715
 10
1435.5782314082
 20
-1163.7042557864
 10
1429.3862351188
 20
-1174.5310167132
 10
1423.0189948582
 20
-1185.2536943703
 10
1416.4816106953
 20
-1195.8637000458
 10
1409.7793189817
 20
-1206.3525352761
 10
1402.9174881577
 20
-1216.7117986536
 10
1395.9016144521
 20
-1226.9331925557
 10
1388.7373174798
 20
-1237.0085297914
 10
1381.4303357407
 20
-1246.929740159
 10
1373.9865220232
 20
-1256.6888769104
 10
1366.411838716
 20
-1266.2781231159
 10
1358.7123530327
 20
-1275.6897979258
 10
1350.8942321517
 20
-1284.9163627225
 10
1342.9637382765
 20
-1293.9504271591
 10
1334.9272236197
 20
-1302.7847550785
 10
1326.7911253153
 20
-1311.4122703098
 10
1318.5619602621
 20
-1319.8260623362
 10
1310.2463199042
 20
-1328.01939183
 10
1301.8508649511
 20
-1335.985696051
 10
1293.3823200427
 20
-1343.7185941028
 10
1284.8474683629
 20
-1351.2118920443
 10
1276.2531462064
 20
-1358.4595878505
 10
1267.606237503
 20
-1365.4558762202
 10
1258.9136683033
 20
-1372.195153226
 10
1250.1824012315
 20
-1378.6720208029
 10
1241.4194299084
 20
-1384.8812910724
 10
1232.631773349
 20
-1390.8179904972
 10
1223.8264703413
 20
-1396.4773638657
 10
1215.0105738076
 20
-1401.8548781004
 10
1206.1911451555
 20
-1406.9462258888
 10
1197.3752486218
 20
-1411.747329134
 10
1188.5699456141
 20
-1416.2543422206
 10
1179.7822890548
 20
-1420.4636550953
 10
1171.0193177316
 20
-1424.3718961583
 10
1162.2880506598
 20
-1427.9759349642
 10
1153.5954814602
 20
-1431.2728847293
 10
1144.9485727567
 20
-1434.2601046437
 10
1136.3542506002
 20
-1436.9352019868
 10
1127.8193989205
 20
-1439.2960340437
 10
1119.3508540121
 20
-1441.3407098215
 10
1110.955399059
 20
-1443.0675915642
 10
1102.639758701
 20
-1444.4752960638
 10
1094.4105936478
 20
-1445.5626957693
 10
1086.2744953434
 20
-1446.3289196889
 10
1078.2379806867
 20
-1446.7733540882
 10
1070.3074868114
 20
-1446.8956429815
 10
1062.4893659304
 20
-1446.6956884172
 10
1054.7898802471
 20
-1446.173650556
 10
1047.2151969399
 20
-1445.3299475429
 10
1039.7713832224
 20
-1444.1652551719
 10
1032.4644014833
 20
-1442.680506345
 10
1025.300104511
 20
-1440.876890325
 10
1018.2842308054
 20
-1438.7558517825
 10
1011.4223999814
 20
-1436.3190896393
 10
1004.7201082678
 20
-1433.5685557071
 10
998.1827241049
 20
-1430.5064531244
 10
991.8154838444
 20
-1427.1352345919
 10
985.6234875549
 20
-1423.4576004076
 10
979.6116949374
 20
-1419.476496304
 10
973.7849213522
 20
-1415.195111089
 10
968.147833962
 20
-1410.6168740911
 10
962.7049479935
 20
-1405.745452413
 10
957.4606231209
 20
-1400.584747994
 10
952.4190599738
 20
-1395.138894485
 10
947.5842967724
 20
-1389.4122539371
 10
942.9602060933
 20
-1383.4094133078
 10
938.5504917673
 20
-1377.135180787
 10
934.3586859127
 20
-1370.5945819457
 10
930.3881461063
 20
-1363.7928557103
 10
926.6420526941
 20
-1356.7354501669
 10
923.1234062436
 20
-1349.4280181967
 10
919.8350251403
 20
-1341.8764129487
 10
916.7795433308
 20
-1334.0866831512
 10
913.9594082125
 20
-1326.0650682669
 10
911.3768786736
 20
-1317.8179934951
 10
909.0340232833
 20
-1309.3520646253
 10
906.9327186354
 20
-1300.674062746
 10
905.0746478452
 20
-1291.7909388131
 10
903.4612992009
 20
-1282.7098080825
 10
902.0939649717
 20
-1273.4379444105
 10
900.9737403729
 20
-1263.9827744281
 10
900.1015226884
 20
-1254.3518715916
 10
899.4780105523
 20
-1244.5529501173
 10
899.1037033888
 20
-1234.5938588016
 10
898.9789010127
 20
-1224.4825747349
  0
LWPOLYLINE
  5
BD
330
1F
100
AcDbEntity
  8
0
  6
Continuous
 62
     7
370
    25
100
AcDbPolyline
 90
       78
 70
   128
 43
0.0
 10
983.6195827207
 20
-1273.3446002275
 10
983.7443850968
 20
-1263.0892224045
 10
984.1186922603
 20
-1252.6979652368
 10
984.7422043965
 20
-1242.1791519733
 10
985.6144220809
 20
-1231.5412080339
 10
986.7346466797
 20
-1220.7926542601
 10
988.1019809089
 20
-1209.9421000905
 10
989.7153295533
 20
-1198.9982366645
 10
991.5734003435
 20
-1187.9698298608
 10
993.6747049913
 20
-1176.8657132765
 10
996.0175603816
 20
-1165.6947811506
 10
998.6000899206
 20
-1154.4659812409
 10
1001.4202250388
 20
-1143.1883076562
 10
1004.4757068483
 20
-1131.8707936525
 10
1007.7640879516
 20
-1120.5225043974
 10
1011.2827344022
 20
-1109.152529709
 10
1015.0288278144
 20
-1097.7699767752
 10
1018.9993676207
 20
-1086.3839628588
 10
1023.1911734753
 20
-1075.0036079948
 10
1027.6008878014
 20
-1063.6380276856
 10
1032.2249784805
 20
-1052.296325599
 10
1037.0597416818
 20
-1040.9875862771
 10
1042.101304829
 20
-1029.720867859
 10
1047.3456297016
 20
-1018.5051948258
 10
1052.78851567
 20
-1007.3495507719
 10
1058.4256030603
 20
-996.2628712093
 10
1064.2523766454
 20
-985.2540364107
 10
1070.2641692629
 20
-974.3318642958
 10
1076.4561655524
 20
-963.505103369
 10
1082.823405813
 20
-952.7824257119
 10
1089.3607899759
 20
-942.1724200364
 10
1096.0630816894
 20
-931.6835848061
 10
1102.9249125134
 20
-921.3243214286
 10
1109.9407862191
 20
-911.1029275265
 10
1117.1050831914
 20
-901.0275902908
 10
1124.4120649304
 20
-891.1063799231
 10
1131.855878648
 20
-881.3472431718
 10
1139.4305619551
 20
-871.7579969663
 10
1147.1300476384
 20
-862.3463221564
 10
1154.9481685195
 20
-853.1197573597
 10
1162.8786623947
 20
-844.0856929231
 10
1170.9151770514
 20
-835.2513650037
 10
1179.0512753559
 20
-826.6238497724
 10
1187.2804404091
 20
-818.210057746
 10
1195.596080767
 20
-810.0167282522
 10
1203.9915357201
 20
-802.0504240312
 10
1212.4600806285
 20
-794.3175259794
 10
1220.9949323083
 20
-786.8242280379
 10
1229.5892544647
 20
-779.5765322317
 10
1238.2361631682
 20
-772.580243862
 10
1246.9287323679
 20
-765.8409668562
 10
1255.6599994396
 20
-759.3640992793
 10
1264.4229707628
 20
-753.1548290098
 10
1273.2106273221
 20
-747.218129585
 10
1282.0159303298
 20
-741.5587562165
 10
1290.8318268635
 20
-736.1812419818
 10
1299.6512555156
 20
-731.0898941934
 10
1308.4671520494
 20
-726.2887909482
 10
1317.2724550571
 20
-721.7817778616
 10
1326.0601116164
 20
-717.5724649869
 10
1334.8230829396
 20
-713.6642239239
 10
1343.5543500113
 20
-710.060185118
 10
1352.246919211
 20
-706.7632353529
 10
1360.8938279145
 20
-703.7760154385
 10
1369.4881500709
 20
-701.1009180954
 10
1378.0230017507
 20
-698.7400860385
 10
1386.4915466591
 20
-696.6954102607
 10
1394.8870016122
 20
-694.968528518
 10
1403.2026419701
 20
-693.5608240184
 10
1411.4318070233
 20
-692.4734243129
 10
1419.5679053277
 20
-691.7072003933
 10
1427.6044199845
 20
-691.262765994
 10
1435.5349138597
 20
-691.1404771007
 10
1443.3530347407
 20
-691.340431665
 10
1451.0525204241
 20
-691.8624695262
 10
1458.6272037312
 20
-692.7061725393
 10
1466.0710174487
 20
-693.8708649103
 10
1469.1520998952
 20
-694.4545711034
  0
LWPOLYLINE
  5
BE
330
1F
100
AcDbEntity
  8
0
  6
Continuous
 62
     7
370
    25
100
AcDbPolyline
 90
       22
 70
   128
 43
0.0
 10
1036.6903007759
 20
-1443.5815489788
 10
1032.2249784805
 20
-1438.2742794297
 10
1027.6008878014
 20
-1432.2714388004
 10
1023.1911734753
 20
-1425.9972062796
 10
1018.9993676207
 20
-1419.4566074383
 10
1015.0288278144
 20
-1412.6548812029
 10
1011.2827344022
 20
-1405.5974756595
 10
1007.7640879516
 20
-1398.2900436893
 10
1004.4757068483
 20
-1390.7384384413
 10
1001.4202250388
 20
-1382.9487086438
 10
998.6000899206
 20
-1374.9270937595
 10
996.0175603816
 20
-1366.6800189877
 10
993.6747049913
 20
-1358.2140901179
 10
991.5734003435
 20
-1349.5360882386
 10
989.7153295533
 20
-1340.6529643057
 10
988.1019809089
 20
-1331.5718335751
 10
986.7346466797
 20
-1322.2999699031
 10
985.6144220809
 20
-1312.8447999207
 10
984.7422043965
 20
-1303.2138970842
 10
984.1186922603
 20
-1293.4149756098
 10
983.7443850968
 20
-1283.4558842942
 10
983.6195827207
 20
-1273.3446002275
  0
LWPOLYLINE
  5
BF
330
1F
100
AcDbEntity
  8
0
  6
Continuous
 62
     7
370
    25
100
AcDbPolyline
 90
       57
 70
   128
 43
0.0
 10
984.0113794588
 20
-1291.1575585666
 10
984.1150042924
 20
-1288.7409157321
 10
984.7339464128
 20
-1277.7523198749
 10
985.5998405789
 20
-1266.6441830281
 10
986.7120625291
 20
-1255.4245135435
 10
988.0698104129
 20
-1244.1014001819
 10
989.6721053691
 20
-1232.6830062814
 10
991.5177922318
 20
-1221.177563872
 10
993.6055403629
 20
-1209.5933677411
 10
995.9338446116
 20
-1197.9387694529
 10
998.5010263992
 20
-1186.2221713278
 10
1001.3052349299
 20
-1174.4520203846
 10
1004.3444485245
 20
-1162.6368022509
 10
1007.6164760781
 20
-1150.785035045
 10
1011.1189586399
 20
-1138.9052632351
 10
1014.849371114
 20
-1127.0060514793
 10
1018.8050240793
 20
-1115.0959784508
 10
1022.983065729
 20
-1103.183630653
 10
1027.3804839262
 20
-1091.2775962295
 10
1031.9941083758
 20
-1079.3864587722
 10
1036.8206129098
 20
-1067.5187911331
 10
1041.8565178857
 20
-1055.6831492438
 10
1047.0981926947
 20
-1043.8880659472
 10
1052.5418583792
 20
-1032.1420448454
 10
1058.1835903576
 20
-1020.4535541698
 10
1064.0193212534
 20
-1008.8310206751
 10
1070.0448438275
 20
-997.2828235648
 10
1076.2558140116
 20
-985.81728845
 10
1082.6477540399
 20
-974.442681347
 10
1089.2160556775
 20
-963.1672027179
 10
1095.9559835424
 20
-951.9989815589
 10
1102.8626785195
 20
-940.9460695393
 10
1109.931161264
 20
-930.0164351971
 10
1117.156335791
 20
-919.2179581937
 10
1124.5329931496
 20
-908.5584236334
 10
1132.055815178
 20
-898.0455164508
 10
1139.7193783379
 20
-887.68681587
 10
1147.5181576243
 20
-877.489789941
 10
1155.446530549
 20
-867.4617901552
 10
1163.4987811939
 20
-857.6100461454
 10
1171.6691043319
 20
-847.9416604738
 10
1179.9516096122
 20
-838.4636035114
 10
1188.3403258067
 20
-829.1827084128
 10
1196.8292051155
 20
-820.1056661897
 10
1205.4121275263
 20
-811.2390208873
 10
1214.082905227
 20
-802.589164866
 10
1222.8352870668
 20
-794.1623341934
 10
1231.6629630627
 20
-785.9646041481
 10
1240.559568949
 20
-778.0018848397
 10
1249.518690765
 20
-770.2799169481
 10
1258.5338694798
 20
-762.8042675849
 10
1267.5986056484
 20
-755.5803262796
 10
1276.7063640978
 20
-748.613301094
 10
1285.8505786381
 20
-741.9082148678
 10
1295.0246567967
 20
-735.469901597
 10
1304.2219845709
 20
-729.3030029492
 10
1310.8124626678
 20
-725.0601406459
  0
ENDSEC
  0
SECTION
  2
OBJECTS
  0
DICTIONARY
  5
C
330
0
100
AcDbDictionary
281
     1
  3
ACAD_GROUP
350
D
  3
ACAD_LAYOUT
350
1A
  3
ACAD_MLINESTYLE
350
17
  3
ACAD_PLOTSETTINGS
350
19
  3
ACAD_PLOTSTYLENAME
350
E
  3
ACAD_SCALELIST
350
47
  0
DICTIONARY
  5
D
102
{ACAD_REACTORS
330
C
102
}
330
C
100
AcDbDictionary
281
     1
  0
DICTIONARY
  5
1A
102
{ACAD_REACTORS
330
C
102
}
330
C
100
AcDbDictionary
281
     1
  3
Layout1
350
1E
  3
Layout2
350
26
  3
Model
350
22
  0
DICTIONARY
  5
17
102
{ACAD_REACTORS
330
C
102
}
330
C
100
AcDbDictionary
281
     1
  3
Standard
350
18
  0
DICTIONARY
  5
19
102
{ACAD_REACTORS
330
C
102
}
330
C
100
AcDbDictionary
281
     1
  0
ACDBDICTIONARYWDFLT
  5
E
102
{ACAD_REACTORS
330
C
102
}
330
C
100
AcDbDictionary
281
     1
  3
Normal
350
F
100
AcDbDictionaryWithDefault
340
F
  0
DICTIONARY
  5
47
102
{ACAD_REACTORS
330
C
102
}
330
C
100
AcDbDictionary
281
     1
  3
A0
350
48
  3
A1
350
49
  3
A2
350
4A
  3
A3
350
4B
  3
A4
350
4C
  3
A5
350
4D
  3
A6
350
4E
  3
A7
350
4F
  3
A8
350
50
  3
A9
350
51
  3
B0
350
52
  3
B1
350
53
  3
B2
350
54
  3
B3
350
55
  3
B4
350
56
  3
B5
350
57
  3
B6
350
58
  3
B7
350
59
  3
B8
350
5A
  3
B9
350
5B
  3
C0
350
5C
  3
C1
350
5D
  3
C2
350
5E
  3
C3
350
5F
  3
C4
350
60
  3
C5
350
61
  3
C6
350
62
  3
C7
350
63
  3
C8
350
64
  3
C9
350
65
  3
D0
350
66
  3
D1
350
67
  3
D2
350
68
  0
LAYOUT
  5
1E
102
{ACAD_REACTORS
330
1A
102
}
330
1A
100
AcDbPlotSettings
  1

  2
none_device
  4

  6

 40
0.0
 41
0.0
 42
0.0
 43
0.0
 44
0.0
 45
0.0
 46
0.0
 47
0.0
 48
0.0
 49
0.0
140
0.0
141
0.0
142
1.0
143
1.0
 70
   688
 72
     1
 73
     0
 74
     5
  7

 75
    16
147
1.0
148
0.0
149
0.0
100
AcDbLayout
  1
Layout1
 70
     1
 71
     1
 10
0.0
 20
0.0
 11
420.0
 21
297.0
 12
0.0
 22
0.0
 32
0.0
 14
1.0000000000E+20
 24
1.0000000000E+20
 34
1.0000000000E+20
 15
-1.0000000000E+20
 25
-1.0000000000E+20
 35
-1.0000000000E+20
146
0.0
 13
0.0
 23
0.0
 33
0.0
 16
1.0
 26
0.0
 36
0.0
 17
0.0
 27
1.0
 37
0.0
 76
     0
330
1B
  0
LAYOUT
  5
26
102
{ACAD_REACTORS
330
1A
102
}
330
1A
100
AcDbPlotSettings
  1

  2
none_device
  4

  6

 40
0.0
 41
0.0
 42
0.0
 43
0.0
 44
0.0
 45
0.0
 46
0.0
 47
0.0
 48
0.0
 49
0.0
140
0.0
141
0.0
142
1.0
143
1.0
 70
   688
 72
     1
 73
     0
 74
     5
  7

 75
    16
147
1.0
148
0.0
149
0.0
100
AcDbLayout
  1
Layout2
 70
     1
 71
     2
 10
0.0
 20
0.0
 11
0.0
 21
0.0
 12
0.0
 22
0.0
 32
0.0
 14
0.0
 24
0.0
 34
0.0
 15
0.0
 25
0.0
 35
0.0
146
0.0
 13
0.0
 23
0.0
 33
0.0
 16
1.0
 26
0.0
 36
0.0
 17
0.0
 27
1.0
 37
0.0
 76
     0
330
23
  0
LAYOUT
  5
22
102
{ACAD_REACTORS
330
1A
102
}
330
1A
100
AcDbPlotSettings
  1

  2
none_device
  4
Letter_(8.50_x_11.00_Inches)
  6

 40
6.35
 41
6.35
 42
6.35000508
 43
6.35000508
 44
215.9
 45
279.4
 46
0.0
 47
0.0
 48
0.0
 49
0.0
140
0.0
141
0.0
142
1.0
143
1.0
 70
  1712
 72
     1
 73
     0
 74
     0
  7

 75
     0
147
1.0
148
0.0
149
0.0
100
AcDbLayout
  1
Model
 70
     1
 71
     0
 10
0.0
 20
0.0
 11
279.4
 21
215.9
 12
0.0
 22
0.0
 32
0.0
 14
0.0
 24
0.0
 34
0.0
 15
279.4
 25
215.9
 35
0.0
146
0.0
 13
0.0
 23
0.0
 33
0.0
 16
1.0
 26
0.0
 36
0.0
 17
0.0
 27
1.0
 37
0.0
 76
     0
330
1F
331
29
  0
MLINESTYLE
  5
18
102
{ACAD_REACTORS
330
17
102
}
330
17
100
AcDbMlineStyle
  2
Standard
 70
     0
  3

 62
   256
 51
90.0
 52
90.0
 71
     2
 49
0.5
 62
   256
  6
BYLAYER
 49
-0.5
 62
   256
  6
BYLAYER
  0
ACDBPLACEHOLDER
  5
F
102
{ACAD_REACTORS
330
E
102
}
330
E
  0
SCALE
  5
48
102
{ACAD_REACTORS
330
47
102
}
330
47
100
AcDbScale
 70
     0
300
1:1
140
1.0
141
1.0
290
     1
  0
SCALE
  5
49
102
{ACAD_REACTORS
330
47
102
}
330
47
100
AcDbScale
 70
     0
300
1:2
140
1.0
141
2.0
290
     0
  0
SCALE
  5
4A
102
{ACAD_REACTORS
330
47
102
}
330
47
100
AcDbScale
 70
     0
300
1:4
140
1.0
141
4.0
290
     0
  0
SCALE
  5
4B
102
{ACAD_REACTORS
330
47
102
}
330
47
100
AcDbScale
 70
     0
300
1:5
140
1.0
141
5.0
290
     0
  0
SCALE
  5
4C
102
{ACAD_REACTORS
330
47
102
}
330
47
100
AcDbScale
 70
     0
300
1:8
140
1.0
141
8.0
290
     0
  0
SCALE
  5
4D
102
{ACAD_REACTORS
330
47
102
}
330
47
100
AcDbScale
 70
     0
300
1:10
140
1.0
141
10.0
290
     0
  0
SCALE
  5
4E
102
{ACAD_REACTORS
330
47
102
}
330
47
100
AcDbScale
 70
     0
300
1:16
140
1.0
141
16.0
290
     0
  0
SCALE
  5
4F
102
{ACAD_REACTORS
330
47
102
}
330
47
100
AcDbScale
 70
     0
300
1:20
140
1.0
141
20.0
290
     0
  0
SCALE
  5
50
102
{ACAD_REACTORS
330
47
102
}
330
47
100
AcDbScale
 70
     0
300
1:30
140
1.0
141
30.0
290
     0
  0
SCALE
  5
51
102
{ACAD_REACTORS
330
47
102
}
330
47
100
AcDbScale
 70
     0
300
1:40
140
1.0
141
40.0
290
     0
  0
SCALE
  5
52
102
{ACAD_REACTORS
330
47
102
}
330
47
100
AcDbScale
 70
     0
300
1:50
140
1.0
141
50.0
290
     0
  0
SCALE
  5
53
102
{ACAD_REACTORS
330
47
102
}
330
47
100
AcDbScale
 70
     0
300
1:100
140
1.0
141
100.0
290
     0
  0
SCALE
  5
54
102
{ACAD_REACTORS
330
47
102
}
330
47
100
AcDbScale
 70
     0
300
2:1
140
2.0
141
1.0
290
     0
  0
SCALE
  5
55
102
{ACAD_REACTORS
330
47
102
}
330
47
100
AcDbScale
 70
     0
300
4:1
140
4.0
141
1.0
290
     0
  0
SCALE
  5
56
102
{ACAD_REACTORS
330
47
102
}
330
47
100
AcDbScale
 70
     0
300
8:1
140
8.0
141
1.0
290
     0
  0
SCALE
  5
57
102
{ACAD_REACTORS
330
47
102
}
330
47
100
AcDbScale
 70
     0
300
10:1
140
10.0
141
1.0
290
     0
  0
SCALE
  5
58
102
{ACAD_REACTORS
330
47
102
}
330
47
100
AcDbScale
 70
     0
300
100:1
140
100.0
141
1.0
290
     0
  0
SCALE
  5
59
102
{ACAD_REACTORS
330
47
102
}
330
47
100
AcDbScale
 70
     0
300
1/128" = 1'-0"
140
0.0078125
141
12.0
290
     0
  0
SCALE
  5
5A
102
{ACAD_REACTORS
330
47
102
}
330
47
100
AcDbScale
 70
     0
300
1/64" = 1'-0"
140
0.015625
141
12.0
290
     0
  0
SCALE
  5
5B
102
{ACAD_REACTORS
330
47
102
}
330
47
100
AcDbScale
 70
     0
300
1/32" = 1'-0"
140
0.03125
141
12.0
290
     0
  0
SCALE
  5
5C
102
{ACAD_REACTORS
330
47
102
}
330
47
100
AcDbScale
 70
     0
300
1/16" = 1'-0"
140
0.0625
141
12.0
290
     0
  0
SCALE
  5
5D
102
{ACAD_REACTORS
330
47
102
}
330
47
100
AcDbScale
 70
     0
300
3/32" = 1'-0"
140
0.09375
141
12.0
290
     0
  0
SCALE
  5
5E
102
{ACAD_REACTORS
330
47
102
}
330
47
100
AcDbScale
 70
     0
300
1/8" = 1'-0"
140
0.125
141
12.0
290
     0
  0
SCALE
  5
5F
102
{ACAD_REACTORS
330
47
102
}
330
47
100
AcDbScale
 70
     0
300
3/16" = 1'-0"
140
0.1875
141
12.0
290
     0
  0
SCALE
  5
60
102
{ACAD_REACTORS
330
47
102
}
330
47
100
AcDbScale
 70
     0
300
1/4" = 1'-0"
140
0.25
141
12.0
290
     0
  0
SCALE
  5
61
102
{ACAD_REACTORS
330
47
102
}
330
47
100
AcDbScale
 70
     0
300
3/8" = 1'-0"
140
0.375
141
12.0
290
     0
  0
SCALE
  5
62
102
{ACAD_REACTORS
330
47
102
}
330
47
100
AcDbScale
 70
     0
300
1/2" = 1'-0"
140
0.5
141
12.0
290
     0
  0
SCALE
  5
63
102
{ACAD_REACTORS
330
47
102
}
330
47
100
AcDbScale
 70
     0
300
3/4" = 1'-0"
140
0.75
141
12.0
290
     0
  0
SCALE
  5
64
102
{ACAD_REACTORS
330
47
102
}
330
47
100
AcDbScale
 70
     0
300
1" = 1'-0"
140
1.0
141
12.0
290
     0
  0
SCALE
  5
65
102
{ACAD_REACTORS
330
47
102
}
330
47
100
AcDbScale
 70
     0
300
1-1/2" = 1'-0"
140
1.5
141
12.0
290
     0
  0
SCALE
  5
66
102
{ACAD_REACTORS
330
47
102
}
330
47
100
AcDbScale
 70
     0
300
3" = 1'-0"
140
3.0
141
12.0
290
     0
  0
SCALE
  5
67
102
{ACAD_REACTORS
330
47
102
}
330
47
100
AcDbScale
 70
     0
300
6" = 1'-0"
140
6.0
141
12.0
290
     0
  0
SCALE
  5
68
102
{ACAD_REACTORS
330
47
102
}
330
47
100
AcDbScale
 70
     0
300
1'-0" = 1'-0"
140
12.0
141
12.0
290
     0
  0
ENDSEC
  0
EOF
